Oops, an error
Loading. Please wait.

I Looked At You bass

version 1
version 1

Whole song

3,026 views 1 this week
no commentswrite comment
1 2 3 4 5
x 5
add to favorites
×
Save as Personal and add changes to this tab that will be seen only by you. Learn more ›
×
You can save this tab as Personal to edit and correct it or add notes. All changes will be seen only by you. Learn more »
launch autoscroll
font size
0
reset
guitar tuner
edit
Autoscroll
slow
fast
+/-
esc
set tempo
stop
Author
Difficulty
Intro

G---5---3---3-|
D-----5---5---|
A-3-----------| 
E-------------| x4

Verse
"I looked at you..."
G---5---3---3-|---5---3---3-|---3---1---1-|---5---3---3-|
D-----5---5---|-----5---5---|-----3---3---|-----5---5---|
A-3-----------|-3-----------|-1-----------|-3-----------|
E-------------|-------------|-------------|-------------| 

"I smiled at you..."
G---5---3---3-|---5---3---3-|---3---1---1-|-------------|
D-----5---5---|-----5---5---|-----3---3---|-------------|
A-3-----------|-3-----------|-1-----------|-3-----------|
E-------------|-------------|-------------|-------------| 

Break 
"And were on our way..."
G----------------------|---------------------|
D--5-3-5--3-5--3-5--3-5|---------------------|
A---5----5----5----5---|-3-1-3--1-3--1-3--1-3|
E----------------------|--3----3----3----3---| x2

Chorus
"Cause its to late , to late ..."
G--------|---------|---------|---------|---------|
D---2-5--|---0-3---|---------|---------|---------|
A-3-----3|-1-----1-|---3-6---|---1-4---|---2-5---|
E--------|---------|-4-----4-|-2-----2-|-3-----3-|

Break x 2

Keyboard Solo 
G---2-5---|---------|---2-5---|---------|---------|---------|-----------|
D-3-----3-|---2-5---|-3-----3-|---2-5---|---------|---2-5---|-----------|
A---------|-3-----3-|---------|-3-----3-|---3-6---|-3-----3-|---0---2-3-|
E---------|---------|---------|---------|-4-----4-|---------|-1---3-----|

Verse x1

Break x2

Chorus x1

Break x2

Outro
G--------|---------|---------|---------|---------------|
D---2-5--|---0-3---|---------|---------|---------------|
A-3-----3|-1-----1-|---3-6---|---1-4---|---3-3(hold)---|
E--------|---------|-4-----4-|-2-----2-|-3-------------|

Thats it ! 
Any problems or adjustments let us know ! 
shaun-obeirne@hotmail.com

            
            
Suggest correction
Creating personal tab
Creating personal tab
You can edit any tab online and save it as your Personal.

You can edit, replace or remove any tab part or add personal notes – all changes will be seen only by you.

Personal tabs can be accessed anytime from any device, even offline.
Learn more »
comments
print report bad tab
guest
You may want to rate the tab now too:
select rating
Wanna post a correction for this tab? Suggest correction