Oops, an error
Loading. Please wait.

La Woman Tab

version 6
version 6

Whole song

343 views 3 this week
1 commentread comment
1 2 3 4 5
2 more votes to show rating
add to favorites
launch autoscroll
font size
0
reset
how to read this tab
guitar tuner
Autoscroll
slow
fast
+/-
esc
set tempo
stop
Help us to improve Ultimate-Guitar.com Take our survey!
×
Author
About this tab version
This is the official tab from the Doors. Was this info helpful? Yes No
The Doors - L.A.Woman
Tuning: standard (EADGBe)
No Capo.


[Intro]

(guitar 1)

                                                      
e|--/9----------------|--7----------------|--5---------------5\3--|
B|--------------------|-------------------|-----------------------|
G|--------------------|-------------------|-----------------------|
D|--------------------|-------------------|-----------------------|
A|--------------------|-------------------|-----------------------|
E|--------------------|-------------------|-----------------------|

e|-------------------|-----2g3----2--3--2--0--0g2--|-------------------|
B|-------------------|-----------------------------|-------------------|
G|-------------------|-----------------------------|-------------------|
D|-------------------|-----------------------------|-------------------|
A|-------------------|-----------------------------|-------------------|
E|-------------------|-----------------------------|-------------------|

e|----------------------------|-------------------|-----------------------------|
B|-----2g3----2--3--2--0--2~--|-------------------|-----------------------------|
G|----------------------------|-------------------|-------6g7\6--7\6---------6--|
D|----------------------------|-------------------|-----------------------7-----|
A|----------------------------|-------------------|-----------------------------|
E|----------------------------|-------------------|-----------------------------|


(guitar 2)

                                                  A                 
e|-------------------|---------------------------|-------------------|
B|-------------------|---------------------------|-------------------|
G|-------------------|-----6g7----6--7--6--------|-------------------|
D|-------------------|---------------------7--7--|-------------------|
A|-------------------|---------------------------|-------------------|
E|-------------------|---------------------------|-------------------|


e|-----------------------------|-------------------|----------------------------|
B|-----------------------------|-------------------|----------------------------|
G|-----6g7\6------7\6-------6--|-------------------|-----6g7\6------7--6--------|
D|-----------------------9-----|-------------------|----------------------7--7--|
A|-----------------------------|-------------------|----------------------------|
E|-----------------------------|-------------------|----------------------------|


e|-------------------|-------------------------|-------------------|
B|-------------------|-------------------------|-------------------|
G|-------------------|-----------6g7--6--------|-------------------|
D|-------------------|-------------------7--7--|-------------------|
A|-------------------|-------------------------|-------------------|
E|-------------------|-------------------------|-------------------|


[Verse 1]

(guitar 1)

                                                           
e|-------------------------|-------------------|-------------------|
B|-------------------------|-------------------|-------------------|
G|-----------6g7--6--------|-------------------|-------------------|
D|-------------------7--7--|-------------------|-------------------|
A|-------------------------|-------------------|-------------------|
E|-------------------------|-------------------|-------------------|


e|--------------------------|-------------------------|-------------------|
B|--8----7-----5--7---------|-------------------------|-------------------|
G|----------------------5b6-|-------------------------|-------------------|
D|----------5---------------|-------7--5--------------|--7----------------|
A|--------------------------|-------------7--6--5-----|-------------------|
E|--------------------------|----------------------8--|-------------------|


e|-------------------|----------------------------|-------------------------|
B|-------------------|----------------------------|-------------------------|
G|-------------------|----------------------------|-----------5-------------|
D|-------------------|--7--5--7--5--7--5--7--5g7--|-----5--7----------5--7--|
A|-------------------|----------------------------|-------------------------|
E|-------------------|----------------------------|-------------------------|


e|-------------------|---------------------|---------------------------|
B|-------------------|---------------------|---------------------------|
G|-------------------|---------------------|---------------------------|
D|-------------------|---------------------|--7--6--7\6----7--6--7--6--|
A|-------------------|---------------------|---------------------------|
E|-------------------|---------------------|---------------------------|


e|------------------------|-------------------|--------------------|
B|------------------------|-------------------|--------------------|
G|-----------5~-----------|-------------------|--------------------|
D|--7--6--7---------------|-------------------|--------------------|
A|------------------------|-------------------|--------------------|
E|------------------------|-------------------|--------------------|

    G                                       A                                     
e|--3----------------|-------------------|-------------------|-------------------|
B|--3----------------|-------------------|--2----------------|--2----------------|
G|--0----------------|-------------------|--2----------------|--2----------------|
D|--0----------------|-------------------|--2----------------|--2----------------|
A|--2----------------|-------------------|--0----------------|--0----------------|
E|--3----------------|-------------------|-------------------|-------------------|


    G                                       A                      
e|--3----------------|--3----------------|--5--5----5-----5----5--|
B|--3----------------|--3----------------|--5--5----5-----5----5--|
G|--0----------------|--0----------------|--6--6----6-----6----6--|
D|--0----------------|--0----------------|--7--7----7-----7----7--|
A|--2----------------|--2----------------|--7--7----7-----7----7--|
E|--3----------------|--3----------------|--5--5----5-----5----5--|


[Solo 1]

(guitar 1)
                                      
e|-----------------------|--------------------------|--------------------------|
B|-----------------------|--------------------------|--------------------------|
G|-----------------------|--------------------0--2--|--4--4b6-----4\2-----2----|
D|-----------------------|-----------0--2--4--------|------------------4-------|
A|-----------------------|--0--2--4-----------------|--------------------------|
E|--------------0--2--4--|--------------------------|--------------------------|


e|-----------------------|---------------------------|---------------------------|
B|-----------------------|---------------------------|---------------------------|
G|-----------------------|--0--2--4----4b6-----4pbr6-|-----2-----2--4b6---4-2----|
D|--------------0--2--4--|---------------------------|--------4---------------4--|
A|-----------------------|---------------------------|---------------------------|
E|-----------------------|---------------------------|---------------------------|


e|----------------------------|----------------------0--|-------/5----5----5--7--|
B|----------------------------|-------------------------|------------------------|
G|--4b6-----4pbr6----2-----2--|----------2-----2--4-----|------------------------|
D|----------------------4-----|-------4-----------------|------------------------|
A|----------------------------|-------------------------|------------------------|
E|----------------------------|-------------------------|------------------------|


e|-----5--7--7pbr9----5-----5--|-----5--7--5--7--7--7--/9--|
B|-----------------------7-----|---------------------------|
G|-----------------------------|---------------------------|
D|-----------------------------|---------------------------|
A|-----------------------------|---------------------------|
E|-----------------------------|---------------------------|


e|-----9--9--9-----10--10--10--|--9--9--9----9\7----7--7--|
B|-----------------------------|--------------------------|
G|-----------------------------|--------------------------|
D|-----------------------------|--------------------------|
A|-----------------------------|--------------------------|
E|-----------------------------|--------------------------|


e|-----------7\5----5--5~--|-----------5g3--------|-------------------|
B|-------------------------|----------------------|-------------------|
G|-------------------------|----------------------|-------------------|
D|-------------------------|----------------------|-------------------|
A|-------------------------|----------------------|-------------------|
E|-------------------------|----------------------|-------------------|


e|----------------------------|-------------------|-------------------|
B|----------------------------|-------------------|-------------------|
G|-----6g7\6------7--6--------|-------------------|-------------------|
D|----------------------7--7--|-------------------|-------------------|
A|----------------------------|-------------------|-------------------|
E|----------------------------|-------------------|-------------------|


e|-------------------|-------------------|-------------------|
B|-------------------|-------------------|-------------------|
G|-------------------|-------------------|-------------------|
D|-------------------|-------------------|-------------------|
A|-------------------|-------------------|-------------------|
E|-------------------|-------------------|-------------------|


[Chorus]

(guitar 2)
                                                              
e|----------------------------|-------------------|------------------------|
B|----------------------------|-------------------|--8b--------------------|
G|--7b8----5--7-----7b9~------|-------------------|-----------5~-----------|
D|----------------------------|-------------------|------------------------|
A|----------------------------|-------------------|------------------------|
E|----------------------------|-------------------|------------------------|


e|-------------------|-------------------|--------------------------|
B|-------------------|-------------------|--------------------------|
G|-------------------|-------------------|--------------------------|
D|-------------------|-------------------|--7--5--7--5--7--5--7--5--|
A|-------------------|-------------------|--------------------------|
E|-------------------|-------------------|--------------------------|


e|-------------------------|-------------------|-------------------|
B|-------------------------|-------------------|-------------------|
G|-----------5~------------|-------------------|-------------------|
D|--7--5--7----------------|-------------------|-------------------|
A|-------------------------|-------------------|-------------------|
E|-------------------------|-------------------|-------------------|


e|------------------------|-------------------------|-------------------|
B|--7br8------------------|-------------------------|-------------------|
G|--7-----------5---------|--5----------------------|-------------------|
D|-----------------7------|-----7-------------------|-------------------|
A|------------------------|--------7--7~------------|-------------------|
E|------------------------|-------------------------|-------------------|


e|-----------------------|--------------------------|-------------------|
B|-----------------------|--------------------------|-------------------|
G|-----------------------|--------------------------|-------------------|
D|-----------7--5--7--5--|--7--5--7--5--7--5--7-----|-------------------|
A|-----------------------|--------------------------|-------------------|
E|-----------------------|--------------------------|-------------------|

    G                                       A                 
e|--3----------------|-------------------|-------------------|
B|--3----------------|-------------------|--2----------------|
G|--0----------------|-------------------|--2----------------|
D|--0----------------|-------------------|--2----------------|
A|--2----------------|-------------------|--0----------------|
E|--3----------------|-------------------|-------------------|


e|--------------------||--------------------|-------------------|
B|--------------------||--------------------|-------------------|
G|--------------------||*-------------------|-------------------|
D|--------------------||*-------------------|-------------------|
A|--------------------||--------------------|-------------------|
E|--------------------||--------------------|-------------------|


e|-------------------|--------------------||-------------------|
B|-------------------|--------------------||-------------------|
G|-------------------|-------------------*||-------------------|
D|-------------------|-------------------*||-------------------|
A|-------------------|--------------------||-------------------|
E|-------------------|--------------------||-------------------|


[Interlude 1]

(both guitars)

e|---------------------------|---------------------------||
B|---------2--0--------------|--------2--0---------------||
G|*-----2-----------0-----0--|-----2-----------0-----0--*||
D|*--2-----------------0-----|--2-----------------0-----*||
A|---------------------------|---------------------------||
E|---------------------------|---------------------------||


e|--------------------------|--------------------------|
B|--------2--0--------------|--------2--0--------------|
G|-----2-----------0-----0--|-----2-----------0-----0--|
D|--2-----------------0-----|--2-----------------0-----|
A|--------------------------|--------------------------|
E|--------------------------|--------------------------|


e|--------------------------|--------------------------|
B|--------2--0--------------|--------2--0--------------|
G|-----2-----------0-----0--|-----2-----------0-----0--|
D|--2-----------------0-----|--2-----------------0-----|
A|--------------------------|--------------------------|
E|--------------------------|--------------------------|


e|--------------------------|--------------------------|
B|--------2--0--------------|--------2--0--------------|
G|-----2-----------0-----0--|-----2-----------0-----0--|
D|--2-----------------0-----|--2-----------------0-----|
A|--------------------------|--------------------------|
E|--------------------------|--------------------------|


e|--------------------------|--------------------------|
B|--------2--0--------------|--------2--0--------------|
G|-----2-----------0-----0--|-----2-----------0-----0--|
D|--2-----------------0-----|--2-----------------0-----|
A|--------------------------|--------------------------|
E|--------------------------|--------------------------|


e|--------------------------|--------2--0--------------|
B|--------2--0--------------|-----2-----------0-----0--|
G|-----2-----------0-----0--|--2-----------------0-----|
D|--2-----------------0-----|--------------------------|
A|--------------------------|--------------------------|
E|--------------------------|--------------------------|


e|--------2--0--------------|----------2--------------|--------2--0--------------|
B|-----2-----------0-----0--|-----2----------0-----0--|-----2-----------0--------|
G|--2-----------------0-----|--2----------------0-----|--2-----------------0-----|
D|--------------------------|-------------------------|--------------------------|
A|--------------------------|-------------------------|--------------------------|
E|--------------------------|-------------------------|--------------------------|


e|--------2--0--------------|--------2--0--------------|----------0--------------|
B|-----2-----------0-----0--|-----2-----------0-----0--|-----2----------0-----0--|
G|--2-----------------0-----|--2-----------------0-----|--2----------------0-----|
D|--------------------------|--------------------------|-------------------------|
A|--------------------------|--------------------------|-------------------------|
E|--------------------------|--------------------------|-------------------------|


                              A        G           A        G         
e|--------2--0--------------|--------------------|--------------------|
B|-----2-----------0--------|--------------------|--------------------|
G|--2-----------------0-----|--------------------|--------------------|
D|--------------------------|--------------------|--------------------|
A|--------------------------|--------------------|--------------------|
E|--------------------------|--------------------|--------------------|


   A        G           A        G           A        G         
e|--------------------|--------------------|--------------------|
B|--------------------|--------------------|--------------------|
G|--------------------|--------------------|--------------------|
D|--------------------|--------------------|--------------------|
A|--------------------|--------------------|--------------------|
E|--------------------|--------------------|--------------------|


   A        G           A        G           A        G         
e|--------------------|--------------------|--------------------|
B|--------------------|--------------------|--------------------|
G|--------------------|--------------------|--------------------|
D|--------------------|--------------------|--------------------|
A|--------------------|--------------------|--------------------|
E|--------------------|--------------------|--------------------|


   A                                                                             
e|-------------------|-------------------|-------------------|-------------------|
B|-------------------|-------------------|-------------------|-------------------|
G|-------------------|-------------------|-------------------|-------------------|
D|-------------------|-------------------|-------------------|-------------------|
A|-------------------|-------------------|-------------------|-------------------|
E|-------------------|-------------------|-------------------|-------------------|

(guitar 1)
                        G                                       
e|-------------------|--3---------------3--|-------------------|
B|-------------------|--3---------------3--|-------------------|
G|-------------------|--0---------------0--|-------------------|
D|-------------------|--0---------------0--|-------------------|
A|-------------------|--2---------------2--|-------------------|
E|-------------------|--3---------------3--|-------------------|


    A                                       G                   
e|-------------------|-------------------|--3---------------3--|
B|--2----------------|-------------------|--3---------------3--|
G|--2----------------|-------------------|--0---------------0--|
D|--2----------------|-------------------|--0---------------0--|
A|--0----------------|-------------------|--2---------------2--|
E|-------------------|-------------------|--3---------------3--|


                        A                                                         
e|-------------------|-------------------|-------------------|-------------------|
B|-------------------|--2----------------|-------------------|-------------------|
G|-------------------|--2----------------|-------------------|-------------------|
D|-------------------|--2----------------|-------------------|-------------------|
A|-------------------|--0----------------|-------------------|-------------------|
E|-------------------|-------------------|-------------------|-------------------|


e|-----------------------|------------------------|-------------------------|
B|-------------------/5--|------------------------|-------------------------|
G|-----------------------|-----------7b9----5-----|-------------------------|
D|-----------------------|---------------------7--|-----7--5-----5--7-------|
A|-----------------------|------------------------|-----------7-------------|
E|-----------------------|------------------------|-------------------------|


e|-------------------|-----------------------|---------------------------|
B|-------------------|-----------------------|----------8b10---5---------|
G|-------------------|-------------------7b9-|--------------------7b9----|
D|-------------------|-----------------------|---------------------------|
A|-------------------|-----------------------|---------------------------|
E|-------------------|-----------------------|---------------------------|

                            Half-Time Fill (80 bpm)
e|-------------------------|-------------------|-------------------|
B|-------------------------|-------------------|-------------------|
G|--5----------------------|-------------------|-------------------|
D|-----7--5----------------|-------------------|-------------------|
A|-----------7--6--5-------|-------------------|--7----------------|
E|--------------------8----|--5----------------|-------------------|


e|-------------------|---------------------------|--------------------|
B|-------------------|---------------------------|--------------------|
G|-------------------|----------7b9----------5---|--------------------|
D|-------------------|-------------------------7-|--------------------|
A|-------------------|---------------------------|--------------------|
E|-------------------|---------------------------|--------------------|


e|-----5----------------------|---------------------|------------------------|
B|-------8-5-7----------------|---------------------|------------------------|
G|-----------7-5--------------|---------------------|-----------7b9--5~------|
D|---------------------7-5----|--5g7----------------|------------------------|
A|-------------------------7--|---------------------|--7---------------------|
E|----------------------------|---------------------|------------------------|


e|------------------------|-----------------------|---------------------------|
B|------------------------|-----------------------|---------------------------|
G|------------------------|-----------------------|--7b9~---------------5-----|
D|--------------------5---|--5/7------------------|-----------------------7---|
A|----------------5-7---7-|-----------------------|---------------------------|
E|------------------------|-----------------------|---------------------------|


[Bridge 2]

                     (guitar 2)                   
e|-------------------|----------------------|----------------------|
B|-------------------|----------------------|----------------------|
G|-------------------|----------------------|--------------5-------|
D|-------------------|----------------------|----------------------|
A|--7----------------|------------3---------|----------------------|
E|-------------------|--5----5---------5----|----------------------|
                                                                   |
                     (guitar 1)                                    |
e|-------------------|----------------------|----------------------|
B|-------------------|----------------------|----------------------|
G|-------------------|----------------------|----------------------|
D|-------------------|------------5---------|----------------------|
A|--7----------------|--7----7---------7----|----------------------|
E|-------------------|----------------------|----------------------|

 (guitar 2)
e|----------------------|-------------------|---------------------------|
B|----------------------|-------------------|---------------------------|
G|----------------------|-------------------|----------------5b---------|
D|----------------------|-------------------|--5g7----5g7----------7----|
A|------------3---------|-------------------|---------------------------|
E|--5----5---------5----|-------------------|---------------------------|
                                                                        |
                                                                        |
 (guitar 1)                                                             |
e|----------------------|-----------------------|-----------------------|
B|----------------------|-----------------------|-----------------------|
G|----------------------|-----------------------|-----------------------|
D|------------5---------|--------------7b9------|------------------5----|
A|--7----7---------7----|-----------------------|-----------------------|
E|----------------------|-----------------------|-----------------------|


(guitar 2)

e|--------------------|----------------------------|----------------------------|
B|--------------------|----------------------------|----------------------------|
G|--------------------|----------------5b----------|----------------------------|
D|--------------------|--5g7----5g7----------7-----|----------------------------|
A|--------------------|----------------------------|----------------------------|
E|--------------------|----------------------------|----------------------------|
                                                                                |
(guitar 1)                                                                      |
                                                                                |
e|------------------------|------------------------|----------------------------|
B|------------------------|------------------------|----------------------------|
G|------------5b----------|------------5b----------|----------5--------7b---5---|
D|--7----7----------7--5--|--7----7----------7--5--|--7----7--------7---------7-|
A|------------------------|------------------------|----------------------------|
E|------------------------|------------------------|----------------------------|


(guitar 2)
                                         
e|---------------------------|-------------------|------------------------------|
B|---------------------------|-------------------|------------------------------|
G|----------------5b---------|-------------------|------------------------------|
D|--5g7----5g7----------7----|-------------------|------------------------------|
A|---------------------------|-------------------|------------3b----------------|
E|---------------------------|-------------------|--5----5----------5-----------|
                                                                                |
                                                                                |
(guitar 1)                                                                      |
                                                                                |
e|------------------------|---------------------------|-------------------------|
B|------------------------|------5--8--5--------------|-------------------------|
G|------------5b-------5--|--7b-----------7b8----5----|----------5b----------5--|
D|-------7----------7-----|---------------------------|--7----7-----------7-----|
A|------------------------|---------------------------|-------------------------|
E|------------------------|---------------------------|-------------------------|


(guitar 2)

e|--------------------|---------------------------|------------------------------|
B|--------------------|---------------------------|------------------------------|
G|--------------------|--7b9----5----7b9----5~----|------------------------------|
D|--------------------|---------------------------|---------5g7--------5--7------|
A|--------------------|---------------------------|-----------------7------------|
E|--------------------|---------------------------|------------------------------|
                                                                                 |
(guitar 1)                                                                       |
                                                                                 |
e|--------------5----------|-------------------------|---------------------------|
B|--------5--8---------8b10|-----5-------------------|---------------------------|
G|-----7-------------------|---------------7b8---7b8-|--7--5---------------------|
D|-------------------------|-------------------------|--------7-5-7-----5--7--5--|
A|-------------------------|-------------------------|---------------------------|
E|-------------------------|-------------------------|---------------------------|


(guitar 2)

e|-----------------------|---------------------------|---------------------------|
B|-----------------------|---------------------------|---------------------------|
G|------------5b---------|--7b9----5----7b9----5~----|------------------7b9------|
D|--7----7----------7----|---------------------------|---------------------------|
A|-----------------------|---------------------------|---------------------------|
E|-----------------------|---------------------------|---------------------------|
                                                                                 |
                                                                                 |
(guitar 1)                                                                       |
                                                                                 |
e|-------------------------|--------------------------|--------------------------|
B|-------------------------|--5-----------------------|--------------------------|
G|----------5--------5--7--|-----5--7-----------------|--------------------------|
D|--7----7--------7--------|-----------7-----5--7--5--|--7--------5-----7--------|
A|-------------------------|--------------------------|-----5--7-----------5--7--|
E|-------------------------|--------------------------|--------------------------|


(guitar 2)

                                
e|-------------------------|----------------------|------------------------------|
B|-------------------------|----------------------|------------------------------|
G|-------5--7b9----5~------|------------------7b9-|------------------5~----------|
D|-------------------------|----------------------|------------------------------|
A|-------------------------|----------------------|------------------------------|
E|-------------------------|----------------------|------------------------------|
                                                                                 |
(guitar 1)                                                                       |
                                                                                 |
e|--------------------------|-------------------------|--------------------------|
B|--------------------------|-------------------------|--------------------------|
G|--------------------------|----------5--------------|--------------------------|
D|-----------5-----------5--|--7----7--------------5--|-----------5-----------5--|
A|-----5--7--------5--7-----|----------------5--7-----|-----5--7--------5--7-----|
E|--------------------------|-------------------------|--------------------------|

(guitar 2)

e|----------------------|---------------------------|---------------------------|
B|----------------------|---------------------------|---------------------------|
G|------------------7b9-|-------5--7b9-----5~-------|-------5----5----5---------|
D|----------------------|---------------------------|---------------------------|
A|----------------------|---------------------------|---------------------------|
E|----------------------|---------------------------|---------------------------|
                                                                                |
(guitar 1)                                                                      |
                                                                                |
e|-----------------------|--------------------------|---------------------------|
B|-----------------------|--------------------------|---------------------------|
G|------------5----------|--------------------------|----------------5----------|
D|--7----7---------------|--5--------7-----------5--|--5g7----5g7---------------|
A|-----------------5--7--|-----7--5--------5--7-----|---------------------5--7--|
E|-----------------------|--------------------------|---------------------------|

(guitar 2)
 
e|--------------------------|--------------------------|-----------------------|
B|--------------------------|--------------------------|-----------------------|
G|--7b9----5----7b9----5----|--5~----5~----5~----5~----|-----------------------|
D|--------------------------|--------------------------|-----------------------|
A|--------------------------|--------------------------|-----------------------|
E|--------------------------|--------------------------|-----------------------|
                                                                               |
(guitar 1)                                                                     |
                                                                               |
e|--------------------------|-----------------------|--------------------------|
B|--------------------------|-----------------------|--------------------------|
G|--------------------------|-----------------------|--------------------------|
D|--5--------5--------------|--7----7----7--7----7--|-----5--7--5--7--5--7--7--|
A|-----5--7--------5--7-----|-----------------------|--------------------------|
E|--------------------------|-----------------------|--------------------------|

(guitar 2)

e|--------------------------|------------------------|-------------------------|
B|--------------------------|------------------------|-------------------------|
G|--7b9----5----7b9----5----|-------5----5----5--7b9-|-------5----7b9----5~----|
D|--------------------------|------------------------|-------------------------|
A|--------------------------|------------------------|-------------------------|
E|--------------------------|------------------------|-------------------------|
                                                                               |
(guitar 1)                                                                     |
                                                                               |
e|--------------------------|-------------------------|------------------------|
B|--------------------------|-------------------------|------------------------|
G|--------------------------|-------------------------|------------------------|
D|-----7--7--7-----7--7--7--|--7----7--7-----7--7--7--|------------------------|
A|--------------------------|-------------------------|------------------------|
E|--------------------------|-------------------------|------------------------|


                            
e|-----------------------|-------------------------|-----------------------|
B|-----------------------|-------------------------|-----------------------|
G|-------5-----------7b9-|-------5--7b9----5~------|--5~---------------7b9-|
D|----------------7------|-------------------------|-----------------------|
A|-----------------------|-------------------------|-----------------------|
E|-----------------------|-------------------------|-----------------------|


[Solo 2]

                        Moderately Fast (176 bpm)
                           C                                     
e|----------------------|--8----10b12--(10)b----10b12-10b12|
B|-------5----5----5----|----------------------------------|
G|----------------------|----------------------------------|
D|----------------------|----------------------------------|
A|----------------------|----------------------------------|
E|----------------------|----------------------------------|


e|--(10)--8------8g10b12----10b12-10b12|--(10)--8------8g10b12----10s--8--|
B|-----------10------------------------|-----------10---------------------|
G|-------------------------------------|----------------------------------|
D|-------------------------------------|----------------------------------|
A|-------------------------------------|----------------------------------|
E|-------------------------------------|----------------------------------|


                                D                                 
e|------8------8--------8----|--8/10----10--10--10--10--10--12b14|
B|--10-----10-----12---------|-----------------------------------|
G|---------------------------|-----------------------------------|
D|---------------------------|-----------------------------------|
A|---------------------------|-----------------------------------|
E|---------------------------|-----------------------------------|


e|-----12b14-12b14-12b14-12b14-12--10-------|-----10---------------------------|
B|-------------------------------------13b15|---------13----10-----------------|
G|------------------------------------------|-------------------12b14(12)--10--|
D|------------------------------------------|----------------------------------|
A|------------------------------------------|----------------------------------|
E|------------------------------------------|----------------------------------|

                                 A                         
e|----------------------------|--9----9--9--9\7----7--7\5-|
B|----------------------------|---------------------------|
G|--12--10--------------------|---------------------------|
D|----------12--12------------|---------------------------|
A|----------------------------|---------------------------|
E|----------------------------|---------------------------|


e|-----5--5--3-5-3--2--3--2-3-|--0-----0---------------|---------------------|
B|----------------------------|-----2-----3---------3--|--7------7--5--------|
G|----------------------------|------------------------|---------------------|
D|----------------------------|------------------------|---------------------|
A|----------------------------|------------------------|---------------------|
E|----------------------------|------------------------|---------------------|


e|---------------------|-------------------|-------------------------|
B|---------------------|-------------------|--8----7----5--7---------|
G|---------------------|-------------------|---------------------5b6-|
D|---------------------|-------------------|-------------------------|
A|---------------------|-------------------|-------------------------|
E|---------------------|-------------------|-------------------------|


e|-------------------------|-------------------|-------------------|
B|-------------------------|-------------------|-------------------|
G|-------------------------|-------------------|-------------------|
D|-------7--5--------------|--7----------------|-------------------|
A|-------------7--6--5-----|-------------------|-------------------|
E|----------------------8--|-------------------|-------------------|


e|-------------------------|------------------------|--------------------|
B|--8----7----5--7---------|------------------------|--------------------|
G|--8----7----5--------5b6-|------------------------|--------------------|
D|-------------------------|-------7--5-------------|--7~----------------|
A|-------------------------|-------------7--6-------|--------------------|
E|-------------------------|------------------------|--------------------|


[Verse 2]

e|--------------------|-------------------------|-------------------------|
B|--------------------|--8----7----5--7---------|-------------------------|
G|--------------------|---------------------5b--|-------------------------|
D|--------------------|-------------------------|-------7--5--------------|
A|--------------------|-------------------------|-------------7--6--5-----|
E|--------------------|-------------------------|----------------------8--|


e|--------------------|------------------------|------------------------------|
B|--------------------|------------------------|------------------------------|
G|--------------------|--------------6g7----6--|--7\6----7--6--7\6\7\6--------|
D|--7~----------------|------------------------|------------------------------|
A|--------------------|------------------------|------------------------------|
E|--------------------|------------------------|------------------------------|


e|--------------------------|---------------------|-------------------|
B|------------5~---~--------|---------------------|-------------------|
G|--7\6--7------------------|---------------------|-------------------|
D|--------------------------|---------------------|-------------------|
A|--------------------------|---------------------|-------------------|
E|--------------------------|---------------------|-------------------|


                        G                                        
e|-------------------|-------------------|----------------------|
B|-------------------|-------------------|----------------------|
G|-------------------|--4----------------|-----4----4-----------|
D|-------------------|--5----------------|--5-------5-----------|
A|-------------------|--5----------------|--5-------5-----------|
E|-------------------|--3----------------|----------------------|

    A                                         G                   
e|------------------5--|-------------------|---------------------|
B|------------------5--|-------------------|---------------------|
G|--6---------------6--|-------------------|--4---------------4--|
D|--7------------------|-------------------|--5------------5-----|
A|--7------------------|-------------------|--5------------------|
E|--5------------------|-------------------|--3------------------|

                          A                                            
e|---------------------|-------------------|--------------------------|
B|---------------------|--2----------------|--------------------------|
G|---------4-----------|--2----------------|--------------------------|
D|---------5-----------|--2----------------|-----------------------0--|
A|---------------------|--0----------------|--------------0--2--4-----|
E|---------------------|-------------------|-----0--2--4--------------|


e|----------------------|-----------------------------|-----------------------|
B|----------------------|-----------------------------|-----------------------|
G|--4b6-----------------|-----4b6---4b6----(4)--2--2--|-----------------------|
D|----------------------|-----------------------------|--------------0--2--4--|
A|----------------------|-----------------------------|-----------------------|
E|----------------------|-----------------------------|-----------------------|


e|----------------------------|---------------------------|
B|----------------------------|---------------------------|
G|--0/2----4b6--------4b6-4b6-|--(4)--2-----2-------------|
D|----------------------------|----------4-----4\2--------|
A|----------------------------|---------------------------|
E|----------------------------|---------------------------|


e|----------------------------|--------------------------|
B|----------------------------|--------------------------|
G|----------------------------|--------------------------|
D|--------------0/2----4--4b6-|--(4)--------4\2~---------|
A|-----0--2--4----------------|--------------------------|
E|----------------------------|--------------------------|


[Chorus]

e|------------------------|--------------------|--------------------------|
B|---------------------2--|--------------------|--------5-----5-----5-----|
G|------------------2-----|--------------------|-----6-----6-----6-----6--|
D|-----------0/2----------|--------------------|--------------------------|
A|------------------------|--------------------|--------------------------|
E|------------------------|--------------------|--------------------------|


e|--------------------------|---------------------------|
B|--5-----7-----5------5g7--|--------7-----5-------5g7--|
G|-----6-----6--------------|-----6-----6--6----6-------|
D|--------------------------|---------------------------|
A|--------------------------|---------------------------|
E|--------------------------|---------------------------|


e|-------------------------|-----------------------|----------------------------|
B|--------7-----5----------|-----------------------|----------------------------|
G|-----6-----6-------6--6--|--------------6b----6--|--7\6--7\6--7--7--6--6------|
D|-------------------7--7--|-----------------------|----------------------------|
A|-------------------------|-----------------------|----------------------------|
E|-------------------------|-----------------------|----------------------------|


e|-----------------------|----------------------------|--------------------------|
B|-----------------------|----------------------------|--------------------------|
G|---------------7b9-----|---------7b9-(7)--5---------|----------------------7b9-|
D|-----------------------|----------------------------|--7--7----7--7--7--7------|
A|-----------------------|---------------------7\5----|--------------------------|
E|-----------------------|----------------------------|--------------------------|


e|-----------------------|------------------------|--------------------------|
B|-----------------------|------------------------|--------------------------|
G|-------7----7----7--7--|-----5------------------|-----7-----7-----7-----7--|
D|-----------------------|--------7--5--7---------|--------------------------|
A|-----------------------|------------------------|--------------------------|
E|-----------------------|------------------------|--------------------------|


e|--------------------------|--------------------------|
B|--------------------------|-----------7-----7-----7--|
G|-----7-----5--7--5--------|-----7-----7-----7-----7--|
D|--------------------7--5--|--------------------------|
A|--------------------------|--------------------------|
E|--------------------------|--------------------------|


e|---------------------------|--------------------------|
B|-----7---------------------|--------------------------|
G|-----7-----5/7----5--------|-----7-----7-----7-----7--|
D|---------------------7--5--|--------------------------|
A|---------------------------|--------------------------|
E|---------------------------|--------------------------|


e|----------------------------|--------------------|-----------------------|
B|----------------------------|--------------------|-----------------------|
G|-----7-----6/7----6-----5b6-|--------------------|-----------7--6--------|
D|---------------------7------|--------------------|-----------------7--7--|
A|----------------------------|--------------------|-----------------------|
E|----------------------------|--------------------|-----------------------|


e|-------------------|-----------------------|-------------------||
B|-------------------|-----------------------|-------------------||
G|-------------------|-----------7--6-----6--|-------------------||
D|-------------------|-----------------7-----|-------------------||
A|-------------------|-----------------------|-------------------||
E|-------------------|-----------------------|-------------------||



************************************

| g    Grace note
| (n)  Ghost note
| b    Bend
| br   Bend release
| pbr  Pre-bend release
| /    Slide up
| \    Slide down
| ~    Vibrato

************************************
Give kudos to tab author, rate the tab!
1 2 3 4 5
comments
print report bad tab
1 comment total.
+2 reply
daverolston 110 Sep 11, 2016 03:04 AM

Good tab, just one thing I would change......:)kidding!

guest
You may want to rate the tab now too:
select rating