Oops, an error
Loading. Please wait.

Lamerica chords

8,449 views 12 this week
2 commentsread comments
1 2 3 4 5
x 3
add to favorites
×
Save as Personal and add changes to this tab that will be seen only by you. Learn more ›
×
You can save this tab as Personal to edit and correct it or add notes. All changes will be seen only by you. Learn more »
launch autoscroll
font size
0
reset
transpose
0
reset
simplify chords
display chords
guitar tuner
edit
Autoscroll
slow
fast
+/-
esc
set tempo
stop
Author
Difficulty
Strumming
There is no strumming pattern for this song yet. and get +5 IQ
THE DOORS - L'America

Intro(as tabbed by marshmellow666):
|-----------------------------------------------------------|
|-----------------------------------------------------------|
|-----------------------------------------------------------|
|-----------------------------------------------------------|
|--(3)2rb~~~~2--1--0------------------2~~~-1--2--1--0-------|
|-----------------------3--2--1--0---------------------3--2-|

|------------------------------------------|
|------------------------------------------|
|------------------------------------------|
|------------------------------------------|
|--2--1--------2--1-----------2--1---------|
|--------3--2----------3--2----------3--2--|


B
I took a trip down to l'America

to trade some beads for a pint of gold.

I took a trip down to l'America

to trade some beads for a pint of gold.

l'America, l'America, l'America, l'America.


E7
C'mon, people, don't you look so down;
                                                                   A7
You know the rainman's comin' to town.
                                                                                    B
He'll change your weather, he'll change your luck,

and then I'll teach you how to... find yourself,

l'America.

A, Bb, B, C, C#, F#7, B7, E.

  A                              E
Friendly strangers came to town,
   A                      E                    A
all the people put them down.
                            E                        B
But the women loved their ways
                                   C       B
come again some other day.


B
Like the gentle rain, like the gentle rain that falls.

B
I took a trip down to l'America

to trade some beads for a pint of gold.

I took a trip down to l'America

to trade some beads for a pint of gold.

l'America, l'America, l'America, l'America, l'America, l'America,

l'America.


            
            
Suggest correction
Creating personal tab
Creating personal tab
You can edit any tab online and save it as your Personal.

You can edit, replace or remove any tab part or add personal notes – all changes will be seen only by you.

Personal tabs can be accessed anytime from any device, even offline.
Learn more »
Give kudos to tab author, rate the tab!
1 2 3 4 5
comments
print report bad tab
2 comments total.
0 reply
marshmellow666 1,509 May 04, 2008 09:08 PM

hey you should update this with the intro:

|-----------------------------------------------------------|
|-----------------------------------------------------------|
|-----------------------------------------------------------|
|-----------------------------------------------------------|
|--(3)2rb~~~~2--1--0------------------2~~~-1--2--1--0-------|
|-----------------------3--2--1--0---------------------3--2-|

|------------------------------------------|
|------------------------------------------|
|------------------------------------------|
|------------------------------------------|
|--2--1--------2--1-----------2--1---------|
|--------3--2----------3--2----------3--2--|

0 reply
marshmellow666 1,509 May 04, 2008 09:09 PM

good job too

there was no tab for this before
:}

guest
You may want to rate the tab now too:
select rating
Wanna post a correction for this tab? Suggest correction