Oops, an error
Loading. Please wait.
We have an official Light My Fire tab made by UG professional guitarists. Check out the tab »
×
57,655 views 78 this week
8 commentsread comments
1 2 3 4 5
x 16
add to favorites
×
Save as Personal and add changes to this tab that will be seen only by you. Learn more ›
×
You can save this tab as Personal to edit and correct it or add notes. All changes will be seen only by you. Learn more »
launch autoscroll
font size
0
reset
guitar tuner
backing track
0:00
0:00
edit
Autoscroll
slow
fast
+/-
esc
set tempo
stop
Author
Unregistered
Light My Fire - The Doors

This is correct but the studio recording makes it all sound a half step lower.

[Intro]
G|----------|-----------|----------|----2-2--|----2-2--|
D|----------|--------0-3|-1------2-|---2-2-2-|---2-2-2-|
A|--2-5-5--0|--0-3-1----|----1--3--|--4------|--4------|
E|3-------1-|1----------|---3-4----|5--------|55-------|

[Verse]
G|------------|------------|
D|--5---2---2-|--2---------|
A|----5---3---|------4---3-|
E|5-----------|1---5---5---|

  refrain "come baby light my fire"
G|-----------|-------|-----------|---------|------------|---------------|
D|--------2--|-------|--------2--|-----1-4-|------------|--2-2-----2--2-|
A|--2-5--4-5-|-0-0-0-|--2-5--4-5-|--0-2----|--2-5-5--0--|-2-2-----2--2--|
E|3----5-----|1---0--|3----5-----|1--------|3-------1-0-|4-----0-4--3---|

  solo         last 8 times
G|------------|--------|
D|----2-----4-|--------|
A|--3---2-5---|--------|
E|5-----------|5---7---|

            
            
Suggest correction
Creating personal tab
Creating personal tab
You can edit any tab online and save it as your Personal.

You can edit, replace or remove any tab part or add personal notes – all changes will be seen only by you.

Personal tabs can be accessed anytime from any device, even offline.
Learn more »
comments
print report bad tab
8 comments total. Showing first comments.
-1 reply
saturns_bassman 789 Sep 30, 2004 08:00 PM

nice tab dude

-1 reply
chris.bassman 10 Oct 12, 2004 08:00 PM

nice

+3 reply
SoftParade1967 512 Apr 06, 2008 08:32 AM

astonmartin! Ray Manzerek plays the Bass Organ for most of the doors songs! The Soft Parade and L.A. Woman they had a bassist. (Maybe Waiting for the Sun too. im not too sure on that one.) But yeah great tab.

guest
Wanna post a correction for this tab? Suggest correction