Oops, an error
Loading. Please wait.

Light My Fire Tab

version 1
version 1

Whole song

33,879 views 6 this week
2 commentsread comments
1 2 3 4 5
worth learning
x 4
add to favorites
launch autoscroll
font size
0
reset
how to read this tab
guitar tuner
Tab Pro tools
  • play this tab
  • loop segment
  • change instrument
  • show fretboard
  • metronome
×
Best way to learn
"Light My Fire"
Autoscroll
slow
fast
+/-
esc
set tempo
stop
           Light My Fire      The Doors


      INTRO:  G  D  F  A#
      C# G# A   <-----------------------Eb G#(Ab) A

      VERSE:  Am  F#m Am  F#m    <------ Am7 F#m7
      Am  F#m Am  F#m            <------  "    "

      CHORUS:  G  A  D  Dsus4  D <------ Dsus4 ? (not in song but sounds good
      G  A  D  B
      G  D  E  E7                <------ E7 not in Doors' version

      ENDING: F              C       D
             Try to set the night on fire


     Lead Portion Am Bm  (over and over)

e---5--h7h8-5--5--5-h7h7-5-5----0-h2h3---0------5-h7h8-5------------------- 
b-8----------8------------8------------3----5h8---------8-5-h7h8-----------  
g---------------------------------------------------------------7-5-h7h8--- 
d-----------------------------------------------------------------------7--  
a-------------------------------------------------------------------------- 
e--------------------------------------------------------------------------  

                   And so on......

                               Later
                                    Glen
___ Blue Wave/QWK v2.12


From: ae878@yfn.ysu.edu (Jason Todd Carter)
Subject: CRD: Light My Fire (Doors)


I didn't want to post a request without making a contribution, so here's
Light My Fire by the Doors:

INTRO:  G  D  F  A#
        C# G# A

VERSE:  Am  F#m Am  F#m
        Am  F#m Am  F#m

CHORUS:  G  A  D  Dsus4  D
         G  A  D  B
         G  D  E  E7

This is how I form the chords:

EADGBE
------
3x0033   G
xx0232   D
133211   F
x13331   A#
x46664   C#
466544   G#
x02220   A
x02210   Am
244222   F#m
xx0233   Dsus4
x24442   B
022100   E
020100   E7
-- 
J.T. Carter
ae878@yfn.ysu.edu
"Women...you can't live without 'em, and they can't pee standing up."===========


The Doors - Light My Fire Intro
Tabbed By: prisoner0990
EMail: sic_maggot28@yahoo.com

***this is the keyboard part but its written 4 guiatr

                                                              
E||------7----5-7--10--8--7--|--5--3--5----5-8--13--10-8-6---|
B||---------8----------------|-----------6-----------------8-|
G||--------------------------|-------------------------------|
D||--------------------------|-------------------------------|
A||--------------------------|-------------------------------|
E||--------------------------|-------------------------------|


                                                        
---------------6--8--6-4-3-1-|-----1--5----------0-----|
--9--8--9--8-9---------------|--4-----------2----------|
-----------------------------|-----------2----------2--|
-----------------------------|-------------------------|
-----------------------------|-------------------------|
-----------------------------|-------------------------|


                                  
-----0-------------0-----|
--2----------2-----------|
----------2-----2-----2--|
-------------------------|
-------------------------|
-------------------------|
comments
print report bad tab
2 comments total.
0 reply
Matt Montoya wrote on May 1 2006, 05:08 pm

Not Good

0 reply
ervyi45 wrote on January 11 2009, 07:11 am

yea

I want to post or [tab]
guest
You may want to rate the tab now too:
select rating
Please do not post tabs as comments. Select "correction" instead!