Oops, an error
Loading. Please wait.

Light My Fire Tab

version 5
version 5

Whole song

385 views 3 this week
no commentswrite comment
1 2 3 4 5
2 more votes to show rating
add to favorites
launch autoscroll
font size
0
reset
how to read this tab
guitar tuner
Autoscroll
slow
fast
+/-
esc
set tempo
stop
Help us to improve Ultimate-Guitar.com Take our survey!
×
Author
About this tab version
This is the official tab from the Doors. Was this info helpful? Yes No
Title: Light My Fire
Artist: The Doors
Tempo = 126


[Intro]

    G           D                 F          Bb
e|--3--------------2----------|-----1-----------6----------|
B|--------3-----------3-------|--------1-----------6-------|
G|-----------4-----------2----|-----------2-----------7----|
D|--5-----------0-------------|--3-----------8-------------|
A|----------------------------|----------------------------|
E|----------------------------|----------------------------|

    Eb          Ab               A
e|-----11----------4----------|--------------5-------------|
B|--------11----------4-------|-----5-----------5-----5----|
G|-----------12----------5----|--------6-----------6-------|
D|--13----------6-------------|--7--------7----------------|
A|----------------------------|----------------------------|
E|----------------------------|----------------------------|

    A
e|--------------5-------------|
B|-----5-----------5-----5----|
G|--------6-----------6-------|
D|--7--------7----------------|
A|----------------------------|
E|----------------------------|


[Verse 1]

   Am9                          F#m                         Am9
e|-------5--7----------------|--------2-------------------|-----------0----------------|
B|----5-----------5----------|-----------2-----2----------|-----0-----------0-----0----|
G|-5-----------------5-------|--------------2-------------|--------2-----------2-------|
D|---------------------------|--4-----------------4-------|----------------------------|
A|---------------------------|----------------------------|--0-------------------------|
E|---------------------------|----------------------------|----------------------------|

    F#m                          Am9                          F#m
e|-----------2----------------|-----------0----------------|-----------2----------------|
B|-----2--------------2-------|-----0-----------0-----0----|-----2-----------2----------|
G|--------2--------2----------|--2-----2-----------2-------|--------2--------------2----|
D|--4-------------------------|----------------------------|--4-------------------------|
A|----------------------------|----------------------------|----------------------------|
E|----------------------------|----------------------------|----------------------------|

    Am9                          F#m
e|-----------0----------------|-----------2----------------|
B|--------------------0-------|--------------------2-------|
G|--------2--------2----------|--------2--------2----------|
D|-----2----------------------|-----4----------------------|
A|--0-----------0-------------|----------------------------|
E|----------------------------|--2-----------2-------------|


[Chorus 1]

    G           A                D        Dsus  D        G           A
e|--------3--------5----------|--2--------3-------------|---3-----------------5----|
B|-----------3--------5-------|-----3-----------3-------|------3-----------5-------|
G|-----4-----------------6----|--------2--------------3h|4--------------6----------|
D|--5-------------------------|--0-----------0----------|---------5--7-------------|
A|----------------------------|-------------------------|--------------------------|
E|--------------5-------------|-------------------------|--------------------------|

    D           B                G           D                E
e|--2-----------7-------------|-----3-----------2----------|-----0--------0-------------|
B|-----3-----------7----------|--------3-----------3-------|--------0--------0-----3----|
G|--------2-----------8-------|-----------4----------------|-----------1--------1-------|
D|--0-----------9-------------|--5-----------0-------------|----------------------------|
A|----------------------------|----------------------------|--2-------------------------|
E|----------------------------|-----------------------0----|----------------------------|

       E7
e|-----0--------0-------------|
B|--------3--------3----------|
G|----------------------------|
D|-----------2----------------|
A|----------------------------|
E|----------------------------|


[Verse 2]


   Am9                          F#m                         Am9
e|-------5--7----------------|--------2-------------------|-----------0----------------|
B|----5-----------5----------|-----------2-----2----------|-----0-----------0-----0----|
G|-5-----------------5-------|--------------2-------------|--------2-----------2-------|
D|---------------------------|--4-----------------4-------|----------------------------|
A|---------------------------|----------------------------|--0-------------------------|
E|---------------------------|----------------------------|----------------------------|

    F#m                          Am9                          F#m
e|-----------2----------------|-----------0----------------|-----------2----------------|
B|-----2--------------2-------|-----0-----------0-----0----|-----2-----------2----------|
G|--------2--------2----------|--2-----2-----------2-------|--------2--------------2----|
D|--4-------------------------|----------------------------|--4-------------------------|
A|----------------------------|----------------------------|----------------------------|
E|----------------------------|----------------------------|----------------------------|

    Am9                          F#m
e|-----------0----------------|-----------2----------------|
B|--------------------0-------|--------------------2-------|
G|--------2--------2----------|--------2--------2----------|
D|-----2----------------------|-----4----------------------|
A|--0-----------0-------------|----------------------------|
E|----------------------------|--2-----------2-------------|


[Chorus 2]

    G           A                D        Dsus  D        G           A
e|--------3--------5----------|--2--------3-------------|---3-----------------5----|
B|-----------3--------5-------|-----3-----------3-------|------3-----------5-------|
G|-----4-----------------6----|--------2--------------3h|4--------------6----------|
D|--5-------------------------|--0-----------0----------|---------5--7-------------|
A|----------------------------|-------------------------|--------------------------|
E|--------------5-------------|-------------------------|--------------------------|

    D           B                G           D                E
e|--2-----------7-------------|-----3-----------2----------|-----0--------0--------0---|
B|-----3-----------7----------|--------3-----------3-------|--------0--------0---------|
G|--------2-----------8-------|-----------4----------------|--1--------1---------------|
D|--0-----------9-------------|--5-----------0-------------|--------------------2------|
A|----------------------------|----------------------------|---------------------------|
E|----------------------------|-----------------------0----|---------------------------|

             E
e|----------------------------|
B|----------------------------|
G|--------------------1-------|
D|-----------2-----2----------|
A|--------------2-------------|
E|----------------------------|


[Interlude]

    Am    Bm         Am          Bm               Am          Bm               Am          Bm
e|----------------|----------------------------|----------------------------|----------------------------|
B|-----5-----7----|--------5--------7----------|--------5--------7----------|--------5--------7----------|
G|-----5-----7----|--------5--------7----------|--------5--------7----------|--------5--------7----------|
D|-----7-----9----|--------7--------9----------|--------7--------9----------|--------7--------9----------|
A|----------------|----------------------------|----------------------------|----------------------------|
E|--5-----7-------|--5-----------7-------------|--5-----------7-------------|--5-----------7-------------|


[Organ solo]

   Am          Bm               Am          Bm
e|---------------------------|---------------------------|
B|-------5--------7----------|--------5--------7---------|
G|-------5--------7----------|--------5--------7---------|
D|-------7--------9----------|--------7--------9---------| x32
A|---------------------------|---------------------------|
E|-5-----------7-------------|--5-----------7------------|

   Am           Bm               Bm
e|----------------------------|--------5----|
B|--------5--------7----------|--8----------|
G|--------5--------7----------|-------------|
D|--------7--------9----------|-------------|
A|----------------------------|-------------|
E|--5-----------7-------------|-------------|


[Guitar Solo]

    Am            Bm
e|--7-------8-----7h8p7p5--------5-------|
B|-------------------------8-------------|
G|---------------------------------------|
D|---------------------------------------|
A|---------------------------------------|
E|---------------------------------------|

                   Bm
e|-----------------7h8p7p5--------5------|
B|-----------8-------------8-------------|
G|---------------------------------------|
D|---------------------------------------|
A|---------------------------------------|
E|---------------------------------------|

           Bm
e|--------------------------------|
B|-------5-7h8p7p5--------5-------|
G|---------------------7----------|
D|--------------------------------|
A|--------------------------------|
E|--------------------------------|
   Bm            Am  Bm
e|-5-----5----|--7---8-----7---|
B|----8-------|----------------|
G|------------|----------------|
D|------------|----------------|
A|------------|----------------|
E|------------|----------------|

   Am        Bm
e|-----------8p7p5---------|
B|------------------8------|
G|-------------------------|
D|-------------------------|
A|-------------------------|
E|-------------------------|

    Am
e|------------------------|
B|--7h8p7p5---------------|
G|-----------7------------|
D|------------------------|
A|------------------------|
E|------------------------|

    Am
e|------------------------|
B|------------------------|
G|--7h8p7p5---------------|
D|-----------7------------|
A|------------------------|
E|------------------------|
  
   Am
e|-----------------5h6-------|
B|----------5h6h7-------7----|
G|-5h6h7---------------------|
D|---------------------------|
A|---------------------------|
E|---------------------------|

   Am
e|---------------5h6------|
B|--------5h6h7-------7---|
G|-5h6h7------------------|
D|------------------------|
A|------------------------|
E|------------------------|

    Am                  Bm
e|---------5----5---7---8p5------5----|
B|-----------7--------------7------7--|
G|--5h6h7-----------------------------|
D|------------------------------------|
A|------------------------------------|
E|------------------------------------|

    Am                 Bm
e|-------------------------------5---|
B|--------5--------------------------|
G|--g5/7------7h8p7p5-----5--7-------|
D|---------------------7-------------|
A|-----------------------------------|
E|-----------------------------------|

   Am      Bm
e|----------------5-------|
B|-----7------------------|
G|-------------7----------|
D|--------------------7---|
A|------------------------|
E|------------------------|

  Am   Bm
e|--------|
B|--------|
G|--5h7---|
D|--------|
A|--------|
E|--------|

   Am                Bm
e|-8-----5-----8--5--------8/--|
B|-8-----5-----8--5--------8/--|
G|-----------------------------|
D|-----------------------------|
A|-----------------------------|
E|-----------------------------|

   Am                Bm
e|-8-----5-----8--5--------5\--|
B|-8-----5-----8--5--------5\--|
G|-----------------------------|
D|-----------------------------|
A|-----------------------------|
E|-----------------------------|

   Am                Bm
e|-8-----5-----8--5--------8/--|
B|-8-----5-----8--5--------8/--|
G|-----------------------------|
D|-----------------------------|
A|-----------------------------|
E|-----------------------------|

       Am                   Bm
e|--------8-----5-----8--5--------5/3-3---|
B|--------8-----5-----8--5--------5/3-3---|
G|----------------------------------------|
D|----------------------------------------|
A|----------------------------------------|
E|----------------------------------------|

    Am        Bm            Am  Bm
e|--3/5--5\3--3/5--5-----|--5----0-----1---|
B|--3/5--5\3--3/5--5--5--|--5--------------|
G|-----------------------|-----------------|
D|-----------------------|-----------------|
A|-----------------------|-----------------|
E|-----------------------|-----------------|

    Am              Bm
e|--3----1h3p1p0-----------------------|
B|------------------3----1h3p1p0-------|
G|-------------------------------------|
D|-------------------------------------|
A|-------------------------------------|
E|-------------------------------------|

    Am    Bm
e|-----------------------|
B|-----------------------|
G|--2-----4p2p0----------|
D|--------------------2--|
A|-----------------------|
E|-----------------------|

    Am                   Bm
e|-------------------------------------------|
B|-------------------------------------------|
G|--2h4p2p0--------2h4p2p0--------2h4p2p0----|
D|-----------2--------------2----------------|
A|-------------------------------------------|
E|-------------------------------------------|

   Am              Bm           Am        Bm
e|-----------------5--7-------|-----5---------------|
B|----------------------------|--------7----5-------|
G|----------------------------|-----------------7---|
D|--2-------------------------|---------------------|
A|----------------------------|---------------------|
E|----------------------------|---------------------|

    Am              Bm
e|------------------5---g5/7---|
B|----------5---7--------------|
G|--5---7----------------------|
D|-----------------------------|
A|-----------------------------|
E|-----------------------------|

     Am             Bm            Am         Bm
e|---g7h8---g8/10---g10/12(hold)|(12)\-------12--|
B|------------------------------|----------------|
G|------------------------------|----------------|
D|------------------------------|----------------|
A|------------------------------|----------------|
E|------------------------------|----------------|


e|---13---15----13h15p13p12--------|
B|---------------------------15----|
G|---------------------------------|
D|---------------------------------|
A|---------------------------------|
E|---------------------------------|


e|-------------------------------------|
B|--15---13---15h13p12-----------------|
G|-----------------------14-12-14------|
D|-------------------------------------|
A|-------------------------------------|
E|-------------------------------------|

    Am                Bm
e|-----------------------------------|
B|--12h13h15p13p12----13h15p13p12----|
G|-----------------14-------------14-|
D|-----------------------------------|
A|-----------------------------------|
E|-----------------------------------|

    Am           Bm
e|--12-13--15----13h15p13p12----|
B|---------------------------15-|
G|------------------------------|
D|------------------------------|
A|------------------------------|
E|------------------------------|

    Am           Bm
e|------------------------------|
B|--12-13--15----13h15p13p12----|
G|---------------------------14-|
G|------------------------------|
D|------------------------------|
A|------------------------------|
E|------------------------------|

    Am          Bm
e|--12-13--15---15p13p12----|
B|-----------------------15-|
G|--------------------------|
D|--------------------------|
A|--------------------------|
E|--------------------------|

    Am                  Bm
e|---------------------------12/|
B|--13h15p13p12-----------------|
G|--------------14--12--14------|
D|------------------------------|
A|------------------------------|
E|------------------------------|

   Am         Bm    Am      Bm
e|/17-------17/16/|/17------17\--------------|
B|----------------|--------------------------|
G|----------------|--------------------------|
D|----------------|--------------------------|
A|----------------|--------------------------|
E|----------------|--------------------------|

       Am                   Bm
e|--------17h19-17h19-17----------17----------17------|
B|-----------------------19-17h19----------------19---|
G|-----------------------------------19-17h19---------|
D|----------------------------------------------------|
A|----------------------------------------------------|
E|----------------------------------------------------|

    Am                      Bm
e|--------17-19-19-17-------17----------17------------|
B|--17-19-------------19------------------------------|
G|--------------------------------17----------19------|
D|----------------------------------------------------|
A|----------------------------------------------------|
E|----------------------------------------------------|

    Am                   Bm
e|--------------17h19-17----------17----------17------|
B|--------17h19----------19-17h19----17---------------|
G|--17h19-------------------------------17------------|
D|----------------------------------------------------|
A|----------------------------------------------------|
E|----------------------------------------------------|

    Am                      Bm
e|--------17----------17h19-21p19---------|
B|--------------17-------------------19b20|
G|--17h19---------------------------------|
D|----------------------------------------|
A|----------------------------------------|
E|----------------------------------------|
 
    Am          Bm
e|-----------17---------|
B|br19----------19\-----|
G|----------------------|
D|----------------------|
A|----------------------|
E|----------------------|

    Am               Bm
e|--------5-------------5-------|
B|------------------------------|
G|-------------7b8r7------------|
D|------------------------------|
A|------------------------------|
E|------------------------------|

  Am
e|-----5-----|
B|---8-------|
G|-----------|
D|-----------|
A|-----------|
E|-----------|

  Am        Bm
e|---7--8---7h8p7p5------5------|
B|--------------------8--5------|
G|------------------------------|
D|------------------------------|
A|------------------------------|
E|------------------------------|

   Am    Bm
e|----------5--7--|
B|-----8----------|
G|----------------|
D|----------------|
A|----------------|
E|----------------|

   Am             Bm
e|--8p7p5------------------------|
B|---------8------7h8p7p5------5-|
G|--------------------------7----|
D|-------------------------------|
A|-------------------------------|
E|-------------------------------|

   Am             Bm
e|-----------------5-----5----|
B|--------------------8-------|
G|----------------------------|
D|----------------------------|
A|----------------------------|
E|----------------------------|

    Am       Bm
e|--7------8----7h8--x-----------|
B|-----------------------8-------|
G|-------------------------------|
D|-------------------------------|
A|-------------------------------|
E|-------------------------------|

  Am      Bm
e|--5-------------------------|
B|--------7h8p7p5--------5----|
G|------------------7---------|
D|----------------------------|
A|----------------------------|
E|----------------------------|

  Am  Bm            Am   Bm
e|----5-----5----|-----7-----8----|
B|-------8-------|----------------|
G|---------------|----------------|
D|---------------|----------------|
A|---------------|----------------|
E|---------------|----------------|

    Am            Bm
e|--7h8p7p5-----------5---|
B|--------------7---------|
G|------------------------|
D|------------------------|
A|------------------------|
E|------------------------|

    Am            Bm
e|--------------------5---|
B|--8p7p5-----------------|
G|--------------7---------|
D|------------------------|
A|------------------------|
E|------------------------|

    Am            Bm
e|--------------------5---|
B|--8p7p5-----------------|
G|--------------7---------|
D|------------------------|
A|------------------------|
E|------------------------|

    Am                   Bm
e|-----------------------------------5-----7-------|
B|--7h8p7p5--------------5-----7-------------------|
G|-----------7-------------------------------------|
D|-------------------------------------------------|
A|-------------------------------------------------|
E|-------------------------------------------------|

  Am       Bm
e|--5------5-------5---|
B|------8------7-------|
G|---------------------|
D|---------------------|
A|---------------------|
E|---------------------|

    Am       Bm            Am       Bm
e|--------7--------5----|-----5-------------|
B|-----5--5--5--8-------|--7----------------|
G|--7-------------------|--------7----------|
D|----------------------|-------------------|
A|----------------------|-------------------|
E|----------------------|-------------------|

Am                       Bm
e|---------------------------------------|
B|---------------------------------------|
G|--7b9----7b9----7b9----7b9br7h5--------|
D|-------------------------------------7-|
A|---------------------------------------|
E|---------------------------------------|

Am                       Bm
e|------------------------------------|
B|------------------------------------|
G|--7b9----7b9----7b9----7b9br7-5-----|
D|----------------------------------7-|
A|------------------------------------|
E|------------------------------------|

Am                       Bm
e|---------------------------------------|
B|---------------------------------------|
G|--7b9----7b9----7b9----7b9br7-5--------|
D|-------------------------------------0-|
A|---------------------------------------|
E|---------------------------------------|

Am                       Bm
e|------------------------------------------|
B|-8b10----8b10----8b10----8b10br8----5-----|
G|------------------------------------------|
D|------------------------------------------|
A|------------------------------------------|
E|------------------------------------------|

Am                        Bm
e|------------------------------------------|
B|-8b10----8b10----8b10----8b10br8----5-----|
G|------------------------------------------|
D|------------------------------------------|
A|------------------------------------------|
E|------------------------------------------|

Am                       Bm
e|------------------------------------|
B|------------------------------------|
G|--7b9----7b9----7b9----7b9br7-5-----|
D|----------------------------------7-|
A|------------------------------------|
E|------------------------------------|

    Am       Bm            Am       Bm            Am       Bm
e|----------------------|----------------------|-----------------5----|
B|--------5--7--5-------|----------------------|-----5--7--8--7-------|
G|--5--7-----------7----|--7--5--7--5--7--5----|--7-------------------|
D|----------------------|----------------------|----------------------|
A|----------------------|----------------------|----------------------|
E|----------------------|----------------------|----------------------|

    Am       Bm
e|--8--7--5-------------|
B|-----------8--7--5\---|
G|----------------------|
D|----------------------|
A|----------------------|
E|----------------------|


[Interlude]
    G           D
e|--3--------------2----------|
B|--------3-----------3-------|
G|-----------4-----------2----|
D|--5-----------0-------------|
A|----------------------------|
E|----------------------------|

    F           Bb               Eb           Ab
e|-----1-----------6----------|-----11----------4----------|
B|--------1-----------6-------|--------11----------4-------|
G|-----------2-----------7----|-----------12----------5----|
D|--3-----------8-------------|--13----------6-------------|
A|----------------------------|----------------------------|
E|----------------------------|----------------------------|

    A                            A
e|--------------5-------------|--------------5-------------|
B|-----5-----------5-----5----|-----5-----------5-----5----|
G|--------6-----------6-------|--------6-----------6-------|
D|--7--------7----------------|--7--------7----------------|
A|----------------------------|----------------------------|
E|----------------------------|----------------------------|


[Verse 3] - no guitar

e|-------|-------|-------|-------|-------|-------|-------|-------|
B|-------|-------|-------|-------|-------|-------|-------|-------|
G|-------|-------|-------|-------|-------|-------|-------|-------|
D|-------|-------|-------|-------|-------|-------|-------|-------|
A|-------|-------|-------|-------|-------|-------|-------|-------|
E|-------|-------|-------|-------|-------|-------|-------|-------|


[Chorus] - no guitar

e|----------|----------------|----------|----------|----------|-------|-------|
B|----------|----------------|----------|----------|----------|-------|-------|
G|----------|----------------|----------|----------|----------|-------|-------|
D|----------|----------------|----------|----------|----------|-------|-------|
A|----------|----------------|----------|----------|----------|-------|-------|
E|----------|----------------|----------|----------|----------|-------|-------|


[Verse 4]

    Am                           F#m                          Am 
e|----------------------------|----------------------------|----------------------------|
B|--------5>--------5>--------|--------2>--------2>--------|--------5>--------5>--------|
G|--------5>--------5>--------|--------2>--------2>--------|--------5>--------5>--------|
D|--------7>--------7>--------|--------4>--------4>--------|--------7>--------7---------|
A|----------------------------|----------------------------|----------------------------|
E|--5-----------5-------------|--2-----------2-------------|--5-----------5-------------|

    F#m                          Am
e|----------------------------|---------------------------|
B|--------2>--------2>--------|--------5>----5>5>---------|
G|--------2>--------2>--------|--------5>----5>5>---------|
D|--------4>--------4>--------|--------7>----7>7>---------|
A|----------------------------|---------------------------|
E|--2-----------2-------------|--5--------5----------0----|
                                             .
    F#m                          Am
e|----------------------------|---------------------------|
B|--------2>----2>2>----------|--------5>----5>5>---------|
G|--------2>----2>2>----------|--------5>----5>5>---------|
D|--------4>----4>4>----------|--------7>----7>7>---------|
A|----------------------------|---------------------------|
E|--2--------2----------------|--5--------5----------0----|
                                             .
    F#m
e|----------------------------|
B|--------2>----2>2>----------|
G|--------2>----2>2>----------|
D|--------4>----4>4>----------|
A|----------------------------|
E|--2--------2----------------|


[Chorus]

    G           A                D     Dsus D             G           A                D
e|--------3--------5----------|-----2-----3-2----------|--------3-----------5-------|--2>-2>---------|
B|-----------3-----------0----|-----------3----3--0----|-----------3----------------|--3>-3>---------|
G|-----4----------------------|--------2---------------|-----4----------------------|--2>-2>---------|
D|--5-----------7-------------|--0---------------------|--5--------------6----------|--0>-0>----0----|
A|----------------------------|------------------------|--------------7-------------|----------------|
E|----------------------------|------------------------|----------------------------|----------------|

    F     C          D        Dsus  D             F     C
e|--1>-1>-0>-0>---|-----------3-----2----------|--1>-1>-0>-0>---|
B|--1>-1>-1>-1>---|-----3--------------3-------|--1>-1>-1>-1>---|
G|--2>-2>-0>-0>---|--------2-------------------|--2>-2>-0>-0>---|
D|--3>-3>-2>-2>---|--0-----------0--------0----|--3>-3>-2>-2>---|
A|--3>-3>-3>-3>---|----------------------------|--3>-3>-3>-3>---|
E|--1>-1>---------|----------------------------|--1>-1>---------|

    D        Dsus  D             F     C          D        Dsus  D
e|-----------3-----2----------|--1>-1>-0>-0>---|-----------3-----2----------|
B|-----3--------------3-------|--1>-1>-1>-1>---|-----3--------------3-------|
G|--------2-------------------|--2>-2>-0>-0>---|--------2-------------------|
D|--0-----------0--------0----|--3>-3>-2>-2>---|--0-----------0--------0----|
A|----------------------------|--3>-3>-3>-3>---|----------------------------|
E|----------------------------|--1>-1>---------|----------------------------|

    F     C          D      D
e|--1>-1>-0>-0>---|--2---|--2-------|
B|--1>-1>-1>-1>---|--3---|--3-------|
G|--2>-2>-0>-0>---|--2---|--2-------|
D|--3>-3>-2>-2>---|--0---|--0-------|
A|--3>-3>-3>-3>---|---(Hold)--------|
E|--1>-1>---------|------|----------|


[Outro]

No guitar


************************************

| x   Dead note
| g   Grace note
| h   Hammer-on
| p   Pull-off
| r   Release
| >   Accented note
| b   Bend
| br  Bend release
| /   Slide up
| \   Slide down
| .   Staccato

************************************
Give kudos to tab author, rate the tab!
1 2 3 4 5
comments
print report bad tab
guest
You may want to rate the tab now too:
select rating