Oops, an error
Loading. Please wait.

Love Her Madly tab

version 3
version 3

Whole song

Interactive

Video

60,415 views 87 this week
4 commentsread comments
1 2 3 4 5
x 20
add to favorites
×
Save as Personal and add changes to this tab that will be seen only by you. Learn more ›
×
You can save this tab as Personal to edit and correct it or add notes. All changes will be seen only by you. Learn more »
launch autoscroll
font size
0
reset
how to read this tab
guitar tuner
backing track
0:00
0:00
edit
Autoscroll
slow
fast
+/-
esc
set tempo
stop
Author
Unregistered
The Doors
Love Her Madly
The Very Best of The Doors

Standard tuning


[Intro]

E|-0-0-0-0-0-0-0-0-0-0--|
B|-1-1-1-1-0-1-1-1-1-0-o|
G|-2-2-2-2-2-2-2-2-2-2--|
D|-2-2-2-2-2-2-2-2-2-2--|
A|-0-0-0-0-0-0-0-0-0-0-o|
E|----------------------|

Am
Don't you love her madly?
Am
Don't you need her badly?
D7
Don't you love her ways?
Am
Tell me what you say?

       Am                C
Don't you love her madly?
       F              D
Want to be her daddy?
      Am
Don't you love her face?
          Am                Em               Am
Don't you love her as she's walking out the door

E|-------------------------------|
B|-------------------------------|
G|-7b9-7b9-7p5---5---------------|
D|-------------7---7-5-----------|
A|---------------------7-6-5-3---|
E|-----------------------------5-|

Am                 Em              Am
Like she did one thousand times before?

E|---------------|
B|---------------|
G|-7b9-7p5---5---|
D|---------7---7-|
A|---------------|
E|---------------|

     D7
Don't you love her ways?
      Am
Tell me what you say,
     Am                     E7               Am
Don't you love her as she's walking out the door?

E|--------------------|
B|--------------------|
G|-7b9-7b9-7p5---5----|
D|-------------7---7--|
A|--------------------|
E|--------------------|

"All your love...."

E|----------------|------------|
B|-5-7-8-7-5\(3)-o|-5-7-8-8/10-|
G|----------------|------------|
D|----------------|------------|
A|--3x-----------o|------------|
E|----------------|------------|

          G
All your love is gone,
           C
So sing a lonely song
      A
Of a deep blue dream,
        D
Seven gorses seem

C  D   G  E  Am
To be on the mark


E|-0-0-0-0-0-0-0-0-0-0--|
B|-1-1-1-1-0-1-1-1-1-0-o|
G|-2-2-2-2-2-2-2-2-2-2--|
D|-2-2-2-2-2-2-2-2-2-2--|
A|-0-0-0-0-0-0-0-0-0-0-o|
E|----------------------|

just play an Am chord through the organ solo

Am       C           F          D
    Yeah,  don't you love her?
     Am                     E7               Am
Don't you love her as she's walking out the door?

E|--------------------|
B|--------------------|
G|-7b9-7b9-7p5---5----|
D|-------------7---7--|
A|--------------------|
E|--------------------|

"All your love...."

E|----------------|------------|
B|-5-7-8-7-5\(3)-o|-5-7-8-8/10-|
G|----------------|------------|
D|----------------|------------|
A|--3x-----------o|------------|
E|----------------|------------|

          G
All your love is gone,
           C
So sing a lonely song
      A
Of a deep blue dream,
        D
Seven gorses seem
C  D   G  E  Am
To be on the mark

E|-0-0-0-0-0-0-0-0-0-0--|
B|-1-1-1-1-0-1-1-1-1-0-o|
G|-2-2-2-2-2-2-2-2-2-2--|
D|-2-2-2-2-2-2-2-2-2-2--|
A|-0-0-0-0-0-0-0-0-0-0-o|
E|----------------------|


[Solo]

E|-8----8--------8----8--------8-9-10--------8----8--------8----8-|
B|---10---10-10----10---10-10---------10-10----10---10-10----10---|
G|----------------------------------------------------------------|
D|----------------------------------------------------------------|
A|----------------------------------------------------------------|
E|----------------------------------------------------------------|


E|---------8--8----8---------10-|
B|-10-8-10-8----10---10-8-10-10-|
G|------------------------------|
D|------------------------------|
A|------------------------------|
E|------------------------------|


************************************

| x  Dead note
| p  Pull-off
| b  Bend
| /  Slide up
| o  reprise

************************************
Suggest correction
Creating personal tab
Creating personal tab
You can edit any tab online and save it as your Personal.

You can edit, replace or remove any tab part or add personal notes – all changes will be seen only by you.

Personal tabs can be accessed anytime from any device, even offline.
Learn more »
comments
print report bad tab
4 comments total. Showing first comments.
0 reply
mike decuffa 10 Feb 19, 2013 02:19 PM

I find it to beright on mate

+2 reply
xonty 595 Jul 24, 2013 07:19 AM

Gorses? :)

0 reply
conradStL15 10 Aug 22, 2014 07:35 PM

good tab and not to be a dick but Robby bends the B string at one point during the solo ....

E!-8----8--------5----8----8--------5-----------------------------|
B!---10---10--8b--------10---10--8b-------------------------------|
G!----------------------------------------------------------------|
D!----------------------------------------------------------------|
A!----------------------------------------------------------------|
E!----------------------------------------------------------------|

guest
Wanna post a correction for this tab? Suggest correction