Oops, an error
Loading. Please wait.

Love Me Two Times tab

version 2
version 2
26,398 views 21 this week
1 commentread comment
1 2 3 4 5
2 more votes to show rating
add to favorites
×
Save as Personal and add changes to this tab that will be seen only by you. Learn more ›
×
You can save this tab as Personal to edit and correct it or add notes. All changes will be seen only by you. Learn more »
launch autoscroll
font size
0
reset
how to read this tab
guitar tuner
backing track
0:00
0:00
edit
Autoscroll
slow
fast
+/-
esc
set tempo
stop
Hello everyone at UG. My Name is Big_papasmurf2 and This is the tab two love me two
times, probly one of the greatest Doors songs ever. And here it is. Its not really
That hard actually , and its Quite the classic. So enjoy.


Legend :  h ---> Hammer on
          p ---> Pull off
          b ---> Bend (in this song it's an half bend)
          ~ ---> Let Ring
VERSE :
e --------------------------------------------------|
B --------------------------------------------------|
G --------------------0h1p0h1p0h1-------0h1p0h1p0h1-|  X 6
D ---0---2---0-2------------------------------------|
A -2---2---2----------------------------------------|
E ----------------0-0--------------0-0--------------|

e ------------------------5-------3b----------------|
B ----------------------------2---------------------|
G -----------------2--------------------------------|
D ---0---2---0-2---0--------------------------------|
A -2---2---2----------------------------------------|
E --------------------------------------------------|

e --------------------------------------------------|
B --------------------------------------------------|
G --------------------0h1p0h1p0h1-------0h1p0h1p0h1-|
D ---0---2---0-2------------------------------------|
A -2---2---2----------------------------------------|
E ----------------0-0--------------0-0--------------|

e -----------------2--|
B -----------------1--|
G -----------------2--|
D ---0---2---0-2------|
A -2---2---2----------|
E --------------------|

CHORUS 1 :
e ---------------3-3---2-2---------2-2--------------|
B -1-1-1-1-1-----3-3---3-3---1-1--------------------|
G -2-2-2-2-2-----------2-2---2-2---2-2--------------|
D -3-3-3-3-3-----------------3-3---1-1--------2-2---|
A -3-3-3-3-3-----2-2---------3-3---2-2--------------|
E ---------------3-3----------------------0-0-------|

VERSE 2 :
e --------------------------------------------------|
B ---------------------0h1p0h1p0h1p0h1p0h1--0h1p0h1-|
G --------------------------------------------------| X 4
D ---0---2---0-2------------------------------------|
A -2---2---2----------------------------------------|
E ---------------0-0--------------------------------|

e ------------------------5-------3b----------------|
B ----------------------------2---------------------|
G -----------------2--------------------------------|
D ---0---2---0-2---0--------------------------------|
A -2---2---2----------------------------------------|
E --------------------------------------------------|

e --------------------------------------------------|
B ---------------------0h1p0h1p0h1p0h1p0h1--0h1p0h1-|
G --------------------------------------------------|
D ---0---2---0-2------------------------------------|
A -2---2---2----------------------------------------|
E ---------------0-0--------------------------------|

e -----------------2--|
B -----------------1--|
G -----------------2--|
D ---0---2---0-2------|
A -2---2---2----------|
E --------------------|

CHORUS 2 :
                                             |-------> X11-|
e ---------------3-3---2-2---------2-2-------5-------------|
B -1-1-1-1-1-----3-3---3-3---1-1-------------5-------------|
G -2-2-2-2-2-----------2-2---2-2---2-2---------------------|
D -3-3-3-3-3-----------------3-3---1-1---------------------|
A -3-3-3-3-3-----2-2---------3-3---2-2---------------------|
E ---------------3-3----------------------0~~~~------------|

CHORUS 1

DURING PIANO SOLO :
e --------------------------------------------------|
B --------------------------------------------------|
G --------------------------------------------------|   X 4
D ---0---2---0-2------2-2-----2-2-------------------|
A -2---2---2----------------------------------------|
E ----------------0-0-----0-0-----------------------|

e ------------------------5-------3b------3---5-----|
B ----------------------------2-------2-------------|
G -----------------2--------------------------------|
D ---0---2---0-2---0--------------------------------|
A -2---2---2----------------------------------------|
E --------------------------------------------------|

e --------------------------------------------------|
B --------------------------------------------------|
G --------------------------------------------------|
D -----2-2-----2-2------0---2---0-2-----------------|
A --------------------2---2---2---------------------|
E 0-0-----0-0---------------------------------------|

CHORUS 2
CHORUS 1

VERSE  2

ENDING :

CHORUS 2   X 2
CHORUS 2  (Instead of playing the end of it 11 times..it's only 6 times)

            
            
Suggest correction
Creating personal tab
Creating personal tab
You can edit any tab online and save it as your Personal.

You can edit, replace or remove any tab part or add personal notes – all changes will be seen only by you.

Personal tabs can be accessed anytime from any device, even offline.
Learn more »
Give kudos to tab author, rate the tab!
1 2 3 4 5
comments
print report bad tab
1 comment total.
0 reply
big_papasmurf2 40 Jan 29, 2006 04:21 PM

Yeah Kick ass tab!

guest
You may want to rate the tab now too:
select rating
Wanna post a correction for this tab? Suggest correction