Oops, an error
Loading. Please wait.

Love Me Two Times bass

version 3
version 3
3,381 views 1 this week
no commentswrite comment
1 2 3 4 5
3 more votes to show rating
add to favorites
×
Save as Personal and add changes to this tab that will be seen only by you. Learn more ›
×
You can save this tab as Personal to edit and correct it or add notes. All changes will be seen only by you. Learn more »
launch autoscroll
font size
0
reset
guitar tuner
backing track
0:00
0:00
edit
Autoscroll
slow
fast
+/-
esc
set tempo
stop
Author
Difficulty
Song: Love Me Two Times
Band: The Doors
Album: Strange Days


Intro

G---------9--9-----|
D------------------|
A---7--7-----------|
E------------------| x20
 0:05


G------------------|
D---------7--7-----|
A------------------|
E---5--5-----------| x4
 0:24

G---------9--9-----|
D------------------|
A---7--7-----------|
E------------------| x4
 0:27

G----------------|
D----------------|
A---5------------|
E------5---------| x7
 0:30

G-----------------|
D-----------------|
A---3-3-3-3-3-----|
E-----------------|
 0:37

Chorus

G-----------------------------------------------|
D---------9--12---------------------------------|
A----10---------------9--12------7--10------5---|
E----------------10----------8----------7-------|
 0:39

G---------9--9-----|
D------------------|
A---7--7-----------|
E------------------| x16
 0:44

G------------------|
D---------7--7-----|
A------------------|
E---5--5-----------| x4
 0:58

G---------9--9-----|
D------------------|
A---7--7-----------|
E------------------| x4
 1:02

G----------------|
D----------------|
A---5------------|
E------5---------| x7
 1:06

G-----------------|
D-----------------|
A---3-3-3-3-3-----|
E-----------------|
 1:11

G-----------------------------------------------|
D---------9--12---------------------------------|
A----10---------------9--12------7--10------5---|
E----------------10----------8----------7-------|
 1:13

G--------------------------|
D--------------------------|
A---3-3-3-3-3-3-3-3-3-3-3--|
E--------------------------|
 1:17

G-----------------------------------------------|
D---------9--12---------------------------------|
A----10---------------9--12------7--10------5---|
E----------------10----------8----------7-------|
 1:21

Organ Solo

G---------9--9-----|
D------------------|
A---7--7-----------|
E------------------| x12
 1:24

G------------------|
D---------7--7-----|
A------------------|
E---5--5-----------| x4
 1:35

G---------9--9-----|
D------------------|
A---7--7-----------|
E------------------| x4
 1:38

G-----------------------------------------------|
D---------9--12---------------------------------|
A----10---------------9--12------7--10------5---|
E----------------10----------8----------7-------|
 1:42

G--------------------------|
D--------------------------|
A---3-3-3-3-3-3-3-3-3-3-3--|
E--------------------------|
 1:46

G-----------------------------------------------|
D---------9--12---------------------------------|
A----10---------------9--12------7--10------5---|
E----------------10----------8----------7-------|
 1:50

G---------9--9-----|
D------------------|
A---7--7-----------|
E------------------| x20
 1:54

G------------------|
D---------7--7-----|
A------------------|
E---5--5-----------| x4
 2:10

G---------9--9-----|
D------------------|
A---7--7-----------|
E------------------| x4
 2:14

G----------------|
D----------------|
A---5------------|
E------5---------| x7
 2:17

G-----------------|
D-----------------|
A---3--3--3--3--3-|
E-----------------|
 2:23

G-----------------------------------------------|
D---------9--12---------------------------------|
A----10---------------9--12------7--10------5---|
E----------------10----------8----------7-------|
 2:25

G----------------|
D----------------|
A--5-7-8-7-------|
E----------------| x6
 2:28

G----------------|
D--5-7-8-7-------|
A----------------|
E----------------| x2
 2:39

G----------------|
D----------------|
A--5-7-8-7-------|
E----------------| x2
 2:43

G----------------|
D----------------|
A---5------------|
E------5---------| x7
 2:46

G-----------------|
D-----------------|
A---3-3-3-3-3-----|
E-----------------|
 2:52

G-----------------------------------------------|
D---------9--12---------------------------------|
A----10---------------9--12------7--10------5---|
E----------------10----------8----------7-------|
 2:54

G--------------------------|
D--------------------------|
A---3-3-3-3-3-3-3-3-3-3-3--|
E--------------------------|
 2:58

G-----------------------------------------------|
D---------9--12---------------------------------|
A----10---------------9--12------7--10------5---|
E----------------10----------8----------7-------|
 3:02

G--------------------------|
D--------------------------|
A---3-3-3-3-3-3-3-3-3-3-3--|
E--------------------------|
 3:05

G-----------------------------------------------|
D---------9--12---------------------------------|
A----10---------------9--12------7--10------5---|
E----------------10----------8----------7-------|
 3:09

G------------------|
D------------------|
A---3-3-3-3-3-3----|
E------------------|
 3:13


Lyrics:

Love me two times, baby
Love me twice today
Love me two times, girl
Im goin away
Love me two times, girl
One for tomorrow
One just for today
Love me two times
Im goin away

Love me one time
I could not speak
Love me one time
Yeah, my knees got weak
But love me two times, girl
Last me all through the week
Love me two times
Im goin away
Love me two times
Im goin away

Oh, yes

Love me one time
I could not speak
Love me one time, baby
Yeah, my knees got weak
But love me two times, girl
Last me all through the week
Love me two times
Im goin away

Love me two times, babe
Love me twice today
Love me two times, babe
cause Im goin away
Love me two time, girl
One for tomorrow
One just for today
Love me two times
Im goin away
Love me two times
Im goin away
Love me two times
Im goin away
Suggest correction
Creating personal tab
Creating personal tab
You can edit any tab online and save it as your Personal.

You can edit, replace or remove any tab part or add personal notes – all changes will be seen only by you.

Personal tabs can be accessed anytime from any device, even offline.
Learn more »
Give kudos to tab author, rate the tab!
1 2 3 4 5
comments
print report bad tab
guest
You may want to rate the tab now too:
select rating
Wanna post a correction for this tab? Suggest correction