Oops, an error
Loading. Please wait.

Love Me Two Times Tab

version 4
version 4

Whole song

Interactive

132,624 views 150 this week
7 commentsread comments
1 2 3 4 5
accurate
x 30
add to favorites
launch autoscroll
font size
0
reset
how to read this tab
guitar tuner
Tab Pro tools
  • play this tab
  • loop segment
  • change instrument
  • show fretboard
  • metronome
×
Best way to learn
"Love Me Two Times"
Autoscroll
slow
fast
+/-
esc
set tempo
stop
Contributor
-----------------------------------------------------------------------------
                             LOVE ME TWO TIMES - The Doors
-----------------------------------------------------------------------------
Tabbed by: Travis Wong
Email: travis_wong@hotmail.com

Note the repeats at the Verse and Chorus. Its in a 4/4 time with a shuffle beat,
so give it a little bounce on those sixteenth notes. Listen to the song for the beat.

P.S. -  tr~~ = trill

Tuning: EADGBe

                 Verse (0:50)
e|--------------|-------------------------------|---------------------------|
B|--------------|-------------------------------|---------------------------|
G|--------------|.-----0h1p0tr~~-----0h1p0tr~~--|--------------------------.|
D|---0--2--0-2--|.------------------------------|-----0--2--0-2------------.|
A|--2--2--0-----|-------------------------------|----2--2--0----------------|
E|--------------|--0-0-----------0-0------------|-(0)-----------------------|

e|-------5-------------|---------------|------------------------------------|
B|----5--5------8~~~~--|---------------|------------------------------------|
G|----6------6---------|---------------|------0h1p0tr~~-------0h1p0tr~~-----|
D|----5----------------|---0--2--0-2---|------------------------------------|
A|--0------------------|--0--0--2------|------------------------------------|
E|---------0-----------|---------------|--0-0------------0--0---------------|

e|--------------|-----------------0----|----------------------0-(0)---------|
B|--------------|------------1~~-------|------3-(3)-1-----------------------|
G|--------------|----------------------|--2----------------2----------------|
D|---0--2--0-2--|--------------------0-|-----------------0------------------|
A|--2--2--2-----|----------------------|------------------------------------|
E|--------------|-0-1-2-----2----------|------------------------------------|

                                     Chorus (1:12)
e|----0-----------|--6-6-6---6-6-x--|---3---3----0--|--0---0-----2-2--------|
B|-------3---3-1--|--5-5-5---5-5-x--|---3---3-x--1--|--1---1-0---0-0--------|
G|----------------|--5-5-5---5-5-x--|.--4---4-x--0--|--3---3-----2-2--------|
D|----------------|--5-5-5---5-5-x--|.--5---5-x-----|--2---2-----1-1--------|
A|----------------|-----------------|---------------|--3---3-----2-2--------|
E|--2-------------|-----------------|---------------|-----------------------|

e|--3-3---3-3-3--|--3-3-3---3-3---|-----------------------------------------|
B|--3-3---3-3-3--|--3-3-3---3-3---|-----------------------------------------|
G|---------------|---------------.|-----------------------------------------|
D|---------------|---------------.|-----------------------------------------|
A|---------------|----------------|-----------------------------------------|
E|--0-0---0-0-0--|--0-0-0---0-0---|-----------------------------------------|

| /  slide up
| \  slide down
| h  hammer-on
| p  pull-off
| ~  vibrato
| +  harmonic
| x  Mute note
=============================================================================
comments
print report bad tab
7 comments total. Showing first comments.
0 reply
Sinoque wrote on May 15 2006, 11:37 am

Very nice my friend

+1 reply
Lucas Stoops wrote on October 22 2006, 10:19 am

perfect, nice to play it

0 reply
Brennon wrote on December 4 2008, 07:15 pm

nice tab but your missing qite a bit!

I want to post or [tab]
guest
You may want to rate the tab now too:
select rating
Please do not post tabs as comments. Select "correction" instead!