Oops, an error
Loading. Please wait.

Love Me Two Times Tab

version 5
version 5

Whole song

Interactive

406 views 15 this week
no commentswrite comment
1 2 3 4 5
please rate
add to favorites
launch autoscroll
font size
0
reset
how to read this tab
guitar tuner
Tab Pro tools
  • play this tab
  • loop segment
  • change instrument
  • show fretboard
  • metronome
×
Best way to learn
"Love Me Two Times"
Autoscroll
slow
fast
+/-
esc
set tempo
stop
Contributor
The Doors - Love me two times

By Aldo Alain

                                                   x6
|-----------------------------------------------------|
|-----------------------------------------------------|
|-------------------0h1p0h1p0h1p0h1-----0h1p0h1p0h1---|
|---0---2---0-2---------------------------------------|
|-2---2---0-------------------------------------------|
|---------------0-0------------------0-0------------0-|

|-------------------5------------------------------------------------------|
|-----------------5-5---8~~------------------------------------------------|
|-----------------6---6-----------------------0h1p0h1p0h1-----0h1p0h1p0h1--|
|---0---2---0-2---------------0---2---0-2----------------------------------|
|-2---2---0-----0-----------0---2---0--------------------------------------|
|-----------------------------------------0-0-------------0-0-------------0|

|-------------------0-------------0-----------------0-------6-6-6-6-6------|
|---------------------3r(4)p1---1------1-3b(4)--3-1---1-----5-5-5-5-5------|
|-----------------2-----------2------2--------3---------2/5-5-5-5-5-5------|
|---0---2---0-2---------------------------------------------5-5-5-5-5------|
|-2---2---0----------------------------------------------------------------|
|---------------2----------------------------------------------------------|

|-3-3---0-0----------2-2---|
|-3-3-x-1-1--x-1-1-x-0-0---|
|-4-4-x-2-2--x-3-3-x-2-2---|
|-5-5-x-0-0--x-2-2-x-1-1---|
|--------------3-3---2-2---|
|------------------------0-|

                                              x4
|-----------------------------------------------|
|-----------------------------------------------|
|-------------------0h1p0h1p0h1p0h1-----0h1p0---|
|---0---2---0-2---------------------------------|
|-2---2---0-------------------------------------|
|---------------0-0-----------------------------|

|-------------------5--------------------------------------------------|
|-----------------5-5---8b(9)------------------------------------------|
|-----------------6---6-------------------------0h1p0h1p0h1-----0h1p0--|
|---0---2---0-2-----------------0---2---0-2----------------------------|
|-2---2---0-----0-------------0---2---0--------------------------------|
|-------------------------------------------0-0------------------------|

|-----------------------------------------0--0----------6-6-6-6--------|
|--------------------------5---1-3r(4)p1-------3b(4)r3--5-5-5-5--------|
|----------------------4/5---2-----------2--------------5-5-5-5--------|
|---0---2---0-2--0---0----------------------------------5-5-5-5--------|
|-2---2---0--------0---------------------------------------------------|
|----------------------------------------------------------------------|

|-3-3-0-0--0------0-2-2-------------------------3-3-0-0-0-0-----0-2-2-2-|
|-3-3-0-1--0--1-1-0-0-0-x-8-8-8-8-8-8-8-8-8-8-8-3-3-0-1-1-0-1-1-0-0-0-0-|
|-4-4-0-2--0--3-3-0-2-2-x-7-7-7-7-7-7-7-7-7-7-7-4-4-0-2-2-0-3-3-0-2-2-2-|
|-5-5---0-----2-2---1-1-x-6-6-6-6-6-6-6-6-6-6-6-5-5---0-0---2-2---1-1-1-|
|-------------3-3---2-2-x-7-7-7-7-7-7-7-7-7-7-7-------------3-3---2-2-2-|
|-----------------------------------------------------------------------|

Esto es lo que interpreta la guitarra mientras Ray Manzarek toca el solo de piano 
 
                              x2
|----------------------------------|
|----------------------------------|
|----------------------------------|
|---0---2---0-2-----2-2-----2-2----|
|-2---2---0------------------------|
|---------------0-0-----0-0-----0--|

|-------------------5---------5-----------------------------------|
|-----------------5-5---8---8-------------------------------------|
|-----------------6---6---6---------------------------------------|
|---0---2---0-2---------------------2-2-----2-2------0---2---0-2--|
|-2---2---0-----0----------------------------------2---2---0------|
|-------------------------------0-0-----0-0------0----------------|


|-0-3-0-5-0-7-0-5-0-3-0-3-0-5-0-7-0-10-0-7-0-5-0-3-0-5-0-7-0-5-0-3-0-5-0--|
|-------------------------------------------------------------------------|
|-------------------------------------------------------------------------|
|-------------------------------------------------------------------------|
|-------------------------------------------------------------------------|
|-------------------------------------------------------------------------|

|-3-0-7-0-5-0-3-0-10-0-5-0-3-0-6-0-5-0-3-0-3-0-7-0-6-0-10-0-7-0-6-0-3-0---|
|-------------------------------------------------------------------------|
|-------------------------------------------------------------------------|
|-------------------------------------------------------------------------|
|-------------------------------------------------------------------------|
|-------------------------------------------------------------------------|

|-7-0-5-0-3-0-12-0-10-7-0-5-0-3-0-7-0-5-0-3-0-10-7-0-5-0------------------|
|-------------------------------------------------------------------------|
|-------------------------------------------------------------------------|
|-------------------------------------------------------------------------|
|-------------------------------------------------------------------------|
|-------------------------------------------------------------------------|

|-----3-----0-----0-2-2--------------------------3-3---0-0-------7-7------|
|-----3-----1-1-1-0-0-0-x-8-8-8-8-8-8-8-8-8-8-8--3-3-x-1-1-x-1-1/7-7------|
|-------4-2---3-3-0-2-2-x-7-7-7-7-7-7-7-7-7-7-7--4-4-x-2-2-x-3-3/8-8------|
|---5---5-0---2-2---1-1-x-6-6-6-6-6-6-6-6-6-6-6--5-5-x-0-0-x-2-2/9-9------|
|-------------3-3---2-2-x-7-7-7-7-7-7-7-7-7-7-7--------------3-3----------|
|-3-------------------------------------------------------------------0---|

                                       x4
|------------------------------------------|
|------------------------------------------|
|------------------------------------------|
|---0---2---0-2---0h2p0h2p0h2p0h2---0h2p0--|
|-2---2---0--------------------------------|
|---------------0--------------------------|

|-------------------5------------------------------------------------------|
|-----------------5-5---8r(9)----------------------------------------------|
|-----------------6---6----------------------------------------------------|
|---0---2---0-2-----------------0---2---0-2---0h2p0h2p0h2p0h2--0h2p0-------|
|-2---2---0-----0-------------0---2---0------------------------------------|
|-------------------------------------------0------------------------------|


|-----------------------0---------------0-------0---------6-6-6-6-6--------|
|-------------------0h1-----3r(4)p1---1---3b(4)---3r(4)-3-5-5-5-5-5--------|
|-----------------2-------2---------2-------------------2-5-5-5-5-5--------|
|---0---2---0-2-0-----------------------------------------5-5-5-5-5--------|
|-2---2---0----------------------------------------------------------------|
|--------------------------------------------------------------------------|

|-3-3---0-0----------7-7---------------------------------------------------|
|-3-3-x-1-1--x-1-1-x-7-7---------------------------------------------------|
|-4-4-x-2-2--x-3-3-x-8-8---------------------------------------------------|
|-5-5-x-0-0--x-2-2-x-9-9-----2-2-----2-2-----0---2---0-2-----2-2-----2-2---|
|--------------3-3-------------------------2---2---0-----------------------|
|------------------------0-0-----0-0-----0---------------0-0-----0-0-------|


|---------------------------0---------------------------5---------5--------|
|-------------------------3-------0-------------------5-5---8---8----------|
|-------------------0-2/4-----4/2---0-----------------6---6---6------------|
|-----0---2---0-2-----------------------0---2---0-2------------------------|
|---2---2---0-------------------------2---2---0-----0----------------------|
|-0---------------0--------------------------------------------------------|

|----------------------------------------0-----------------0-0-0/10----10----10-|
|---------------3-3-3--3-3--3-3--5-----1-------3r(4)p1---1---1-1/10----10-13-10-|
|-----------2/4---4-4--4-4--4-4--4---2-----2-2---------2------------11----------|
|-----2-2--------------------------0--------------------------------------------|
|-------------------------------------------------------------------------------|
|-0-0-----0---------------------------------------------------------------------|

|-6-6-6-6-6--3-3-0-0-0-0-----7-7------------------------------------------|
|-5-5-5-5-5--3-3-0-1-1-0-1-1/7-7-x-8-8-8-8-8-8-8-8-8-8-8------------------|
|-5-5-5-5-5--4-4-0-2-2-0-3-3/8-8-x-7-7-7-7-7-7-7-7-7-7-7------------------|
|-5-5-5-5-5--5-5---0-0---2-2/9-9-x-6-6-6-6-6-6-6-6-6-6-6------------------|
|------------------------3-3-----x-7-7-7-7-7-7-7-7-7-7-7------------------|
|-------------------------------------------------------------------------|

|-3-3-0-0-0-0------7-7--------------------------3-3-0-0-0-0-----7-7-------|
|-3-3-0-1-1-0--1-1/7-7--x-8-8-8-8-8-8-8-8-8-8-8-3-3-0-1-1-0-1-1/7-7-------|
|-4-4-0-2-2-0--3-3/8-8--x-7-7-7-7-7-7-7-7-7-7-7-4-4-0-2-2-0-3-3/8-8-------|
|-5-5---0-0----2-2/9-9--x-6-6-6-6-6-6-6-6-6-6-6-5-5---0-0---2-2/9-9-------|
|--------------3-3------x-7-7-7-7-7-7-7-7-7-7-7-------------3-3-----------|
|-------------------------------------------------------------------------|

|-15-15-15-15-15-15-------------------------------------------------------|
|-15-15-15-15-15-15-------------------------------------------------------|
|--x--x--x--x--x--x-------------------------------------------------------|
|-14-14-14-14-14-14-------------------------------------------------------|
|-------------------------------------------------------------------------|
|-------------------------------------------------------------------------|
comments
We did not receive enough feedback on this tab! Please rate:
print report bad tab
1 2 3 4 5
I want to post or [tab]
guest
You may want to rate the tab now too:
select rating
Please do not post tabs as comments. Select "correction" instead!