Oops, an error
Loading. Please wait.

Love Me Two Times Tab

version 6
version 6
457 views 9 this week
no commentswrite comment
1 2 3 4 5
1 last vote to show rating
add to favorites
launch autoscroll
font size
0
reset
how to read this tab
guitar tuner
Autoscroll
slow
fast
+/-
esc
set tempo
stop
Help us to improve Ultimate-Guitar.com Take our survey!
×
Author
Title: Love Me Two Times
Artist: The Doors
Album: Strange Days
Words: The Doors
Music: The Doors
Tempo = 126


[Intro]

  N.C.                           E
e|----------------------------|----------------------------|
B|----------------------------|----------------------------|
G|----------------------------|--------0tr1--------0tr1----|
D|--------0-----2-----0--2----|----------------------------|
A|-----2-----2-----0----------|----------------------------|
E|----------------------------|--0--0--------0--0----------|


e|----------------------------|----------------------------|
B|----------------------------|----------------------------|
G|----------------------------|--------0tr1--------0tr1----|
D|--------0-----2-----0--2----|----------------------------|
A|-----2-----2-----0----------|----------------------------|
E|--0-------------------------|--0--0--------0--0----------|


e|----------------------------|----------------------------|
B|----------------------------|----------------------------|
G|----------------------------|--------0tr1--------0tr1----|
D|--------0-----2-----0--2----|----------------------------|
A|-----2-----2-----0----------|----------------------------|
E|--0-------------------------|--0--0--------0--0----------|


e|----------------------------|----------------------------|
B|----------------------------|----------------------------|
G|----------------------------|--------0tr1--------0tr1----|
D|--------0-----2-----0--2----|----------------------------|
A|-----2-----2-----0----------|----------------------------|
E|--0-------------------------|--0--0--------0--0----------|


e|----------------------------|
B|----------------------------|
G|----------------------------|
D|--------0-----2-----0--2----|
A|-----2-----2-----0----------|
E|--0-------------------------|


[Verse 1]

    E
e|----------------------------|
B|----------------------------|
G|--------0tr1--------0tr1----|
D|----------------------------|
A|----------------------------|
E|--0--0--------0--0----------|


e|----------------------------|----------------------------|
B|----------------------------|----------------------------|
G|----------------------------|--------0tr1--------0tr1----|
D|--------0-----2-----0--2----|----------------------------|
A|-----2-----2-----2----------|----------------------------|
E|--0-------------------------|--0--0--------0--0----------|

                                 A7
e|----------------------------|--------------5-------------|
B|----------------------------|--------5--------------8~~--|
G|----------------------------|--------6-----------6-------|
D|--------0-----2-----0--2----|--------7-------------------|
A|-----2-----2-----2----------|--0-------------------------|
E|--0-------------------------|----------------------------|
                                 .     .     .

                                 E7
e|----------------------------|----------------------------|
B|----------------------------|----------------------------|
G|----------------------------|--------0tr1--------0tr1----|
D|--------0-----2-----0--2----|----------------------------|
A|-----0-----2-----2----------|----------------------------|
E|----------------------------|--0--0--------0--0----------|

                                D9(no3) 
e|----------------------------|-----------------0-------|
B|----------------------------|-------------------------|
G|----------------------------|-----------2-------------|
D|--------0-----2-----0--2----|--0----------------------|
A|-----2-----2-----2----------|-------------------------|
E|--0-------------------------|-------------------------|


e|---------------------------0------------------------------------------|
B|---3p1------------1-----------------------------------1--------3br4---|
G|------------2---------------------------------------------------------|
D|---------------------------------------------0------------------------|
A|----------------------------------------------------------------------|
E|----------------------------------------------------------------------|
                                                            
                                                         |--3--| 
e|--------------------------------------0-------------------------------------|
B|--------------------3-------------------------------------------------------|
G|-----------3--------------------------------------------2h0-----------------|
D|----------------------------------------------------------------------------|
A|----------------------------------------------------------------------------|
E|----------------------------------------------------------------------------|
             .

       C7                  
    |---3---||---3---|     G           D9(no3) 
e|-----8--8--8--8--8----|--3-----3--x--0-----0--x----|
B|-----11-11-11-11-11---|--3-----3--x--1-----1--x----|
G|-----9--9--9--9--9----|--4-----4--x--2-----2--x----|
D|-----8--8--8--8--8----|--5-----5--x--0-----0--x----|
A|-----10-10-10-10-10---|--5-----5--x----------------|
E|-----8--8--8--8--8----|--3-----3--x----------------|
  
    C7          B7              N.C.
e|--0-----0--x--2-----2--x----|----------------------------|
B|--1-----1--x--0-----0--x----|----------------------------|
G|--3-----3--x--2-----2--x----|----------------------------|
D|--2-----2--x--1-----1--x----|--------0-----2-----0--2----|
A|--3-----3--x--2-----2--x----|-----2-----2-----2----------|
E|----------------------------|----------------------------|

    E
e|---------------------------------------------------|
B|---------------------------------------------------|
G|--------------0tr1--------------------------0h1p0--|
D|---------------------------------------------------|
A|---------------------------------------------------|
E|--0-----0------------------------------------------|


e|----------------------------|
B|----------------------------|
G|----------------------------|
D|--------0-----2-----0--2----|
A|-----2-----2-----2----------|
E|----------------------------|


e|---------------------------------------------------|
B|---------------------------------------------------|
G|--------------0tr1--------------------------0h1p0--|
D|---------------------------------------------------|
A|---------------------------------------------------|
E|--0-----0------------------------------------------|


e|----------------------------|
B|----------------------------|
G|----------------------------|
D|--------0-----2-----0--2----|
A|-----2-----2-----2----------|
E|----------------------------|


[Verse 2]

    E
e|---------------------------------------------------|
B|---------------------------------------------------|
G|--------------0tr1--------------------------0h1p0--|
D|---------------------------------------------------|
A|---------------------------------------------------|
E|--0-----0------------------------------------------|


e|----------------------------|
B|----------------------------|
G|----------------------------|
D|--------0-----2-----0--2----|
A|-----2-----2-----2----------|
E|----------------------------|


e|---------------------------------------------------|
B|---------------------------------------------------|
G|--------------0tr1--------------------------0h1p0--|
D|---------------------------------------------------|
A|---------------------------------------------------|
E|--0-----0------------------------------------------|

                                 A7
e|----------------------------|--------------5.------------|
B|----------------------------|--------5--------------8br9-|
G|----------------------------|--------6-----------6-------|
D|--------0-----2-----0-------|--------7-------------------|
A|-----2-----2-----2-----2----|--0-------------------------|
E|----------------------------|----------------------------|
                                 .     .     .


e|----------------------------|
B|----------------------------|
G|----------------------------|
D|--------0-----2-----0--2----|
A|-----0-----2-----2----------|
E|----------------------------|

    E
e|---------------------------------------------------|
B|---------------------------------------------------|
G|--------------0tr1--------------------------0h1p0--|
D|---------------------------------------------------|
A|---------------------------------------------------|
E|--0-----0------------------------------------------|

                                 D9(no3) 
e|----------------------------|----------------0----------|
B|----------------------------|-----------0h1-------------|
G|----------------------------|----------------------2----|
D|--------0-----2-----0--2----|---------------------------|
A|-----2-----2-----2----------|---------------------------|
E|----------------------------|--2------------------------|

                      |-----3-----|  |------3------| 
e|------------------------------------------0------------------------|
B|----------------------3br4-----1-----------------------------------|
G|--2--------------------------------2-------------------------------|
D|-------------------------------------------------------------------|
A|-------------------------------------------------------------------|
E|-------------------------------------------------------------------|
    .

                                    C7
                                |---3---| |---3---| 
e|--------0-------------------|-----8--8--8--8--8----|
B|--------------3b4---3-------|-----11-11-11-11-11---|
G|----------------------------|-----9--9--9--9--9----|
D|----------------------------|-----8--8--8--8--8----|
A|----------------------------|-----10-10-10-10-10---|
E|----------------------------|-----8--8--8--8--8----|

    G           D9(no3)          C7          B7
e|--3-----3--x--0-----0--x----|--0-----0--x--2-----2--x----|
B|--3-----3--x--1-----1--x----|--1-----1--x--0-----0--x----|
G|--4-----4--x--2-----2--x----|--3-----3--x--2-----2--x----|
D|--5-----5--x--0-----0--x----|--2-----2--x--1-----1--x----|
A|--5-----5--x----------------|--3-----3--x--2-----2--x----|
E|--3-----3--x----------------|----------------------------|

       E7#9
   |---3---| |---3---|    |---3---| |---3---|     G           D9(no3) 
e|----------------------|----------------------|--3-----3--x--0-----0--x----|
B|-----8>-8>-8>-8>-8>---|--8>-8>-8>-8>-8>-8>---|--3-----3--x--1-----1--x----|
G|-----7>-7>-7>-7>-7>---|--7>-7>-7>-7>-7>-7>---|--4-----4--x--2-----2--x----|
D|-----6>-6>-6>-6>-6>---|--6>-6>-6>-6>-6>-6>---|--5-----5--x--0-----0--x----|
A|-----7>-7>-7>-7>-7>---|--7>-7>-7>-7>-7>-7>---|--5-----5--x----------------|
E|----------------------|----------------------|--3-----3--x----------------|

    C7          B7              E
e|--0-----0--x--2-----2--x----|----------------------------|----------------------------|
B|--1-----1--x--0-----0--x----|----------------------------|----------------------------|
G|--3-----3--x--2-----2--x----|----------------------------|----------------------------|
D|--2-----2--x--1-----1--x----|--------0-----2-----0--2----|--------2--2--------2--2----|
A|--3-----3--x--2-----2--x----|-----2-----2-----2----------|----------------------------|
E|----------------------------|----------------------------|--0--0--------0--0----------|


[Keyboard Solo]

    E
e|----------------------------|
B|----------------------------|
G|----------------------------|
D|--------0-----2-----0--2----|
A|-----2-----2-----2----------|
E|--0-------------------------|


e|----------------------------|----------------------------|
B|----------------------------|----------------------------|
G|----------------------------|----------------------------|
D|--------2--2--------2--2----|--------0-----2-----0--2----|
A|----------------------------|-----2-----2-----2----------|
E|--0--0--------0--0----------|--0-------------------------|

                                 A7
e|----------------------------|--------------5-------------|
B|----------------------------|--------5-----5-----5--8----|
G|----------------------------|--------6-------------------|
D|--------2--2--------2--2----|--------7-------------------|
A|----------------------------|--0-------------------------|
E|--0--0--------0--0----------|----------------------------|
                                 .     .     .

                                 E
e|-----------------5----------|----------------------------|
B|-----------8----------------|----------------------------|
G|--------6-------------------|----------------------------|
D|----------------------------|--------2--2--------2--2----|
A|-----------------------7----|----------------------------|
E|----------------------------|--0--0--------0--0----------|

                                 G           D9(no3)
e|----------------------------|-----------------0----------|
B|----------------------------|--------3--------1----------|
G|----------------------------|-----------4-----------0----|
D|--------0-----2-----0--2----|-----5--------0-------------|
A|-----2-----2-----2----------|----------------------------|
E|--0-------------------------|--3-------------------------|

    C7          B7              E7#9
                                |---3---||---3---|     |---3---||---3---| 
e|-----------0--2-----2-------|----------------------|----------------------|
B|--1-----1--1--0-----0-------|-----8>-8>-8>-8>-8>---|--8>-8>-8>-8>-8>-8>---|
G|--3-----3-----2-----2-------|-----7>-7>-7>-7>-7>---|--7>-7>-7>-7>-7>-7>---|
D|--2-----2-----1-----1-------|-----6>-6>-6>-6>-6>---|--6>-6>-6>-6>-6>-6>---|
A|--3-----3-----2-----2-------|-----7>-7>-7>-7>-7>---|--7>-7>-7>-7>-7>-7>---|
E|----------------------------|----------------------|----------------------|

    G           D9 (no 3)        C7          B7
e|--3-----3--x--0-----0--x----|--0-----0--x--7-----7-------|
B|--3-----3--x--1-----1--x----|--1-----1--x--7-----7-------|
G|--4-----4--x--2-----2--x----|--3-----3--x--8-----8-------|
D|--5-----5--x--0-----0--x----|--2-----2--x--7-----7-------|
A|--5-----5--x----------------|--3-----3--x--9-----9-------|
E|--3-----3--x----------------|--------------7-----7-------|

   N.C.
e|----------------------------|
B|----------------------------|
G|----------------------------|
D|--------0-----2-----0--2----|
A|-----2-----2-----2----------|
E|----------------------------|

    E
e|---------------------------------------------------|
B|---------------------------------------------------|
G|---------------------------------------------------|
D|--------------0tr2--------------------------0h2p0--|
A|---------------------------------------------------|
E|--0-----0------------------------------------------|


e|----------------------------|
B|----------------------------|
G|----------------------------|
D|--------0-----2-----0--2----|
A|-----2-----2-----2----------|
E|----------------------------|


e|---------------------------------------------------|
B|---------------------------------------------------|
G|---------------------------------------------------|
D|--------------0tr2--------------------------0h2p0--|
A|---------------------------------------------------|
E|--0-----0------------------------------------------|


e|----------------------------|
B|----------------------------|
G|----------------------------|
D|--------0-----2-----0--2----|
A|-----2-----2-----2----------|
E|----------------------------|


[Verse 3]

    E
e|---------------------------------------------------|
B|---------------------------------------------------|
G|---------------------------------------------------|
D|--------------0tr2--------------------------0h2p0--|
A|---------------------------------------------------|
E|--0-----0------------------------------------------|


e|----------------------------|
B|----------------------------|
G|----------------------------|
D|--------0-----2-----0--2----|
A|-----2-----2-----2----------|
E|----------------------------|


e|---------------------------------------------------|
B|---------------------------------------------------|
G|---------------------------------------------------|
D|--------------0tr2--------------------------0h2p0--|
A|---------------------------------------------------|
E|--0-----0------------------------------------------|

                                 A7
e|----------------------------|--------------5-------------|
B|----------------------------|--------5--------------8----|
G|----------------------------|--------6-----------6-------|
D|--------0-----2-----0-------|--------7-------------------|
A|-----2-----2-----2-----2----|--0-------------------------|
E|----------------------------|----------------------------|
                                 .     .     .

e|----------------------------|
B|----------------------------|
G|----------------------------|
D|--------0-----2-----0--2----|
A|-----0-----2-----2----------|
E|----------------------------|

    E
e|---------------------------------------------------|
B|---------------------------------------------------|
G|---------------------------------------------------|
D|--------------0tr2--------------------------0h2p0--|
A|---------------------------------------------------|
E|--0-----0------------------------------------------|

                                 D9(no3) 
e|----------------------------|----------------------0---|
B|----------------------------|-----------------0h1------|
G|----------------------------|-----------2--2-----------|
D|--------0-----2-----0--2----|--0-----------------------|
A|-----2-----2-----2----------|--------------------------|
E|----------------------------|--------------------------|

                                      |-------3-------| 
e|-----------------------------------------------------------------0----------|
B|-----------1---------------------3br4-------1-----------1--------1----------|
G|--------------------2-----------------------------2-------------------------|
D|----------------------------------------------------------------------------|
A|----------------------------------------------------------------------------|
E|----------------------------------------------------------------------------|

                                    C7
                                |---3---| |---3---| 
e|-----------0----------------|-----8--8--8--8--8----|
B|-----3b4------3-------------|-----11-11-11-11-11---|
G|--------------------2-------|-----9--9--9--9--9----|
D|----------------------------|-----8--8--8--8--8----|
A|----------------------------|-----10-10-10-10-10---|
E|----------------------------|-----8--8--8--8--8----|

    G           D9(no3)          C7          B7
e|--3-----3--x--0-----0--x----|--0-----0--x--7-----7-------|
B|--3-----3--x--1-----1--x----|--1-----1--x--7-----7-------|
G|--4-----4--x--2-----2--x----|--3-----3--x--8-----8-------|
D|--5-----5--x--0-----0--x----|--2-----2--x--7-----7-------|
A|--5-----5--x----------------|--3-----3--x--9-----9-------|
E|--3-----3--x----------------|--------------7-----7-------|

    E
e|----------------------------|----------------------------|
B|----------------------------|----------------------------|
G|----------------------------|----------------------------|
D|--------2--2--------2--2----|--------0-----2-----0--2----|
A|----------------------------|-----2-----2-----2----------|
E|--0--0--------0--0----------|--0-------------------------|


[Verse 4]

    E
e|----------------------------|----------------------------|
B|----------------------------|----------------------------|
G|----------------------------|----------------------------|
D|--------2--2--------2--2----|--------0-----2-----0--2----|
A|----------------------------|-----2-----2-----2----------|
E|--0--0--------0--0----------|--0-------------------------|


e|-----------------------------------------------------------------0------------------|
B|-----------------------------------------------------3----------------------------0-|
G|--------------------------0-----------2/4--------------------------------2----------|
D|------------------------------------------------------------------------------------|
A|------------------------------------------------------------------------------------|
E|--0-----------0---------------------------------------------------------------------|


e|----------------------------|
B|----------------------------|
G|--0-------------------------|
D|--------0-----2-----0-------|
A|-----2-----2-----2-----2----|
E|----------------------------|

    A7
e|--------------5-------------|-----------------5----------|
B|--------5-----5--------8----|-----------8----------------|
G|--------6-----------6-------|--------6-------------------|
D|----------------------------|----------------------------|
A|--0-------------------------|----------------------------|
E|----------------------------|----------------------------|
    .     .     .   

    E
e|----------------------------------------------------------------|
B|----------------------------------------------------------3--3--|
G|-----------------------------------------------2/4--------4--4--|
D|-----------2-----------2----------------------------------------|
A|----------------------------------------------------------------|
E|--0--------------------------------0----------------------------|


e|-----------------0----------|
B|--3--3--3--3--3-------------|
G|--4--4--4--4--4-------------|
D|----------------------------|
A|----------------------------|
E|----------------------------|

    D9(no3)
e|-----------0------------------|
B|-----------------1-----3br4h1-|
G|--------2-----------2---------|
D|--0--0------------------------|
A|------------------------------|
E|------------------------------|


e|---------------------0-----------------0----------------------------|
B|------------1--------1-----------------1----------------------------|
G|------2-------------------------------------------------/11---------|
D|--------------------------------------------------------------------|
A|--------------------------------------------------------------------|
E|--------------------------------------------------------------------|

                                    C7
                                |---3---||---3---| 
e|--10-------10---------------|-----8--8--8--8--8----|
B|--10-10----10----13----x----|-----11-11-11-11-11---|
G|--------11------------------|-----9--9--9--9--9----|
D|----------------------------|-----8--8--8--8--8----|
A|----------------------------|-----10-10-10-10-10---|
E|----------------------------|-----8--8--8--8--8----|

    G           D9(no3)          C7          B7
e|--3-----3--x--0-----0--x----|--0-----0--x--7-----7-------|
B|--3-----3--x--1-----1--x----|--1-----1--x--7-----7-------|
G|--4-----4--x--2-----2--x----|--3-----3--x--8-----8-------|
D|--5-----5--x--0-----0--x----|--2-----2--x--7-----7-------|
A|--5-----5--x----------------|--3-----3--x--9-----9-------|
E|--3-----3--x----------------|--------------7-----7-------|
    
       E7#9
   |---3---| |---3---|    |---3---| |---3---|     G           D9(no3) 
e|----------------------|----------------------|--3-----3--x--0-----0--x----|
B|-----8>-8>-8>-8>-8>---|--8>-8>-8>-8>-8>-8>---|--3-----3--x--1-----1--x----|
G|-----7>-7>-7>-7>-7>---|--7>-7>-7>-7>-7>-7>---|--4-----4--x--2-----2--x----|
D|-----6>-6>-6>-6>-6>---|--6>-6>-6>-6>-6>-6>---|--5-----5--x--0-----0--x----|
A|-----7>-7>-7>-7>-7>---|--7>-7>-7>-7>-7>-7>---|--5-----5--x----------------|
E|----------------------|----------------------|--3-----3--x----------------|

    C7          B7              E7#9
                                |---3---||---3---|     |---3---||---3---| 
e|--0-----0--x--7-----7-------|----------------------|----------------------|
B|--1-----1--x--7-----7-------|-----8>-8>-8>-8>-8>---|--8>-8>-8>-8>-8>-8>---|
G|--3-----3--x--8-----8-------|-----7>-7>-7>-7>-7>---|--7>-7>-7>-7>-7>-7>---|
D|--2-----2--x--7-----7-------|-----6>-6>-6>-6>-6>---|--6>-6>-6>-6>-6>-6>---|
A|--3-----3--x--9-----9-------|-----7>-7>-7>-7>-7>---|--7>-7>-7>-7>-7>-7>---|
E|--------------7-----7-------|----------------------|----------------------|

    G           D9(no3)          C7          B7
e|--3-----3--x--0-----0--x----|--0-----0--x--7-----7-------|
B|--3-----3--x--1-----1--x----|--1-----1--x--7-----7-------|
G|--4-----4--x--2-----2--x----|--3-----3--x--8-----8-------|
D|--5-----5--x--0-----0--x----|--2-----2--x--7-----7-------|
A|--5-----5--x----------------|--3-----3--x--9-----9-------|
E|--3-----3--x----------------|--------------7-----7-------|

  E7#9
e|-----15-15-15-15-15---|--15------------------------||
B|-----15-15-15-15-15---|--15------------------------||
G|-----13-13-13-13-13---|--13------------------------||
D|----------------------|----------------------------||
A|-----14-14-14-14-14---|--14------------------------||
E|-----12-12-12-12-12---|--12------------------------||
                           .


************************************

| /      Slide up
| x      Dead note
| h      Hammer-on
| p      Pull off
| >      Accented note
| tr     Trill
| b      Bend
| br     Bend-Release
| ~      Vibrato
| .      Stacccato
| x      Dead note
||--3--| Triplet

************************************
Give kudos to tab author, rate the tab!
1 2 3 4 5
comments
print report bad tab
guest
You may want to rate the tab now too:
select rating