Oops, an error
Loading. Please wait.

Peace Frog tab

version 2
version 2

Whole song

93,574 views 153 this week
15 commentsread comments
1 2 3 4 5
x 25
add to favorites
×
Save as Personal and add changes to this tab that will be seen only by you. Learn more ›
×
You can save this tab as Personal to edit and correct it or add notes. All changes will be seen only by you. Learn more »
launch autoscroll
font size
0
reset
how to read this tab
guitar tuner
backing track
0:00
0:00
edit
Autoscroll
slow
fast
+/-
esc
set tempo
stop
Author
[Intro] 
  
                               >       >
e|-------------------------------------------------|
B|-3-------3--------X-------X---X---X---X---X------|
G|-x----X--X----X---X---X---X---X---X---X---X------|
D|-5----X--5----X---X---X---X---X---X---X---X------| x4
A|-5-------5----X-------X-----------------------0--|
E|-------------------------------------------------|


[Part 1]
                      >     >     >  >
e|----------------------------------------------|
B|--3--3---3---3---X--X--X--X--X--X--X--X-------|
G|--X--X---X---X---X--X--X--X--X--X--X--X-------|
D|--5--5---5---5---X--X--X--X--X--X--X--X-------|
A|--5--5---5---5--------------------------------|
E|------------------------------------------0---|

                    >         >     >
e|-------------------------------------------|
B|--3--3--3---3--X--X------X--X--X--X--------|
G|--X--X--X---X--X--X------X--X--X--X--------|
D|--5--5--5---5--X--X---X--X--X--X--X--------|
A|--5--5--5---5---------X--------------------|
E|-------------------------------------0--0--|

Play this 3 times, plus this

                       >        >     >
e|---------------------------------------------|
B|--3--3--3---3--X--X--X--X--X--X--X--X--X-----|
G|--X--X--X---X--X--X--X--X--X--X--X--X--X-----|
D|--5--5--5---5--X--X--X--X--X--X--X--X--X-----|
A|--5--5--5---5-----------------------------0--|
E|---------------------------------------------|

                       >
e|--------------------------------------|
B|--3--3--3---X--X--X--X----X--X--X--X--|
G|--X--X--X---X--X--X--X----X--X--X--X--|
D|--5--5--5---X--X--X--X----X--X--X--X--|
A|--5--5--5--------------------------X--|
E|--------------------------------------|

Then this

e|-----------------------------------------------------|
B|-------3---------------------------------------------|
G|---/4-----2p0-----0-----2--2p0-----0-----------0-----|
D|---------------2-----2----------2----------0h2----2--|
A|--------------------------------------0h2------------|
E|-----------------------------------------------------|


[First ending]

e|------------------------------0-----5-------5--|
B|-----------------------0h2h4-------------------|
G|----------------0--/4------------/6----6--6----|
D|---------0--2h4--------------------------------|
A|--0--2h4---------------------------------------|
E|-----------------------------------------------|   Then repeat Part 1,
                                                     and then do 2nd ending
                                                                                                         
[Second Ending]

e|-----------------------0--7b--5-----5----------------------------7---7-|
B|---------------------0-----------7-----7b-7--4-------------------------|
G|---------------0--/4----------------------------6b--6-4-6-4---/8---8---|
D|--------0--2b4----------------------------------------------6----------|
A|-0--2b4----------------------------------------------------------------|
E|-----------------------------------------------------------------------|


[Interlude]

e|----------------------------------------------------|
B|----------------------------------------------------|
G|----------------------------------------------------|
D|----------------------------------------------------|
A|--------0----2--0-----0------------0----2--0-----0--|
E|--0--3-----3-------3----3--0--0--3----3-------3-----|

e|--0-0--0---0-0--0---0--0--0--0--0--|
B|--3-3--3---0-0--0---0--0--0--0--0--|
G|--0-0--0---0-0--0---0--0--0--0--0--|
D|--2-2--2---2-2--2---2--2--2--2--2--|
A|--2-2--2---2-2--2---2--2--2--2--2--|
E|-----------------------------------|


[Guitar Solo]

e|------------------------------------------------------------------|
B|--18-18-15----15-------------------------15-----15-----15-----15--|
G|-----------17b----17b-15-17-15----15-17b----17b----17b----17b-----|
D|-------------------------------17---------------------------------|
A|------------------------------------------------------------------|
E|------------------------------------------------------------------|

e|-------------------------------------------------------------------|
B|--------15----15-----15-----15-------15-----15-----15-----15-------|
G|--17bbb----17----17b----17b----17bbb----17b----17b----17b----------|
D|-------------------------------------------------------------------|
A|-------------------------------------------------------------15b16-|
E|-------------------------------------------------------------------|

e|-----------------------------------15-17b--17-15----15-----------|
B|--------------------------15-16-17---------------17----18b--17b--|
G|-----------------15-16-17----------------------------------------|
D|--------15-16-17-------------------------------------------------|
A|--17-17----------------------------------------------------------|
E|-----------------------------------------------------------------|

e|--------------------------------------------------------15--17b--|
B|--15-18b---------------------------------------15-16-17----------|
G|---------17b--------------------------15-16-17-------------------|
D|-----------------------------15-16-17----------------------------|
A|--------------17-17-15-16-17-------------------------------------|
E|-----------------------------------------------------------------|

e|--17-15----15----15-15-15-15-15------|
B|--------18----18----------------18b--|
G|-------------------------------------|
D|-------------------------------------|
A|-------------------------------------|
E|-------------------------------------|


[Bridge]

e|--5-----------------------3---3---3--3------3--3--3-|
B|--3---5---6---5---4---3---5---X---X--X------X--X--X-|
G|--0---0-------0---0---5---3---X---X--X------5--5--5-|
D|----------------------5---0---X---X--X------5--5--5-|
A|----------------------------------------------------|
E|----------------------------------------------------|


[Outro]

e|----------------------------------------|
B|--3---3--3-------------X--X--X--X--X----|
G|--X---X--X---X--X--X---X--X--X--X--X----|
D|--5---5--5---X--X--X---X--X--X--X--X----|
A|--5---5--5---X--X--X--------------------|
E|-------------------------------------0--|

e|--------------------------------------|
B|--3---3--3---X--X---X--X--X--X--X-----|
G|--X---X--X---X--X---X--X--X--X--X-----|
D|--5---5--5---X--X---X--X--X--X--X-----|
A|--5---5--5----------------------------|
E|-----------------------------------0--|

PLAY 4 TIMES

e|----------------------------------------|
B|--3---3--3-------------X--X--X--X--X----|
G|--X---X--X---X--X--X---X--X--X--X--X----|
D|--5---5--5---X--X--X---X--X--X--X--X----|
A|--5---5--5---X--X--X--------------------|
E|-------------------------------------0--|

e|--6--6--6----------------------------------|
B|--6--6--6---------X---X--X--X--X--X--------|
G|--X--X--X------X--X---X--X--X--X--X--------|
D|--5--5--5---5--X--X---X--X--X--X--X--------|
A|--5--5--5---5--X---------------------------|
E|-------------------------------------0--0--|

e|--6---6-6-----------------------------|
B|------6-6--X--X--X--X--X--X--X--X-----|
G|-----------X--X--X--X--X--X--X--X-----|
D|-----------X--X--X--X--X--X--X--X-----|
A|--------------------------------------|
E|-----------------------------------0--|


e|-----------------------------------------|
B|--3---3--3-------------X--X--X--X--------|
G|--X---X--X---X--X--X---X--X--X--X--------|
D|--5---5--5---X--X--X---X--X--X--X--------|
A|--5---5--5---X--X--X---------------------|
E|-----------------------------------0--0--|

e|--------------------------------------|
B|--3---3--3---X--X---X--X--X--X--X-----|
G|--X---X--X---X--X---X--X--X--X--X-----|
D|--5---5--5---X--X---X--X--X--X--X-----|
A|--5---5--5----------------------------|
E|-----------------------------------0--|

e|-------------------------------------------|
B|--3--3--3--3-------------X--X--X-----------|
G|--X--X--X--X---X--X--X---X--X--X--X--0-----|
D|--5--5--5--5---X--X--X---X--X--X--X--------|
A|--5--5--5--5---X--X--X------------X--------|
E|----------------------------------------0--|

e|--------------------------------------|
B|--6---6--6---X--X---X--X--X--X--X-----|
G|--X---X--X---X--X---X--X--X--X--X-----|
D|--5---5--5---X--X---X--X--X--X--X-----|
A|--5---5--5----------------------------|
E|-----------------------------------0--|

e|---------------------------------------|
B|--6--6--6--6--X--X---X--X--X--X--X-----|
G|--X--X--X--X--X--X---X--X--X--X--X-----|
D|--5--5--5--5--X--X---X--X--X--X--X-----|
A|--5--5--5--5---------------------------|
E|------------------------------------0--|

e|----------------------------------------|
B|--3---3--3---X--X--X---X--X--X--X-------|
G|--X---X--X---X--X--X---X--X--X--X-------|
D|--5---5--5---X--X--X---X--X--X--X-------|
A|--5---5--5------------------------------|
E|----------------------------------0--0--|

e|--------------------------------------|
B|--3--3--3--3---X--X---X---X--X--------|
G|--X--X--X--X---X--X---X---X--X--------|
D|--5--5--5--5---X--X---X---X--X--------|
A|--5--5--5--5--------------------------|
E|--------------------------------0--0--|

e|--------------------------------------|
B|--3--3--3--3---X--X---X--X--X--X------|
G|--X--X--X--X---X--X---X--X--X--X------|
D|--5--5--5--5---X--X---X--X--X--X------|
A|--5--5--5--5--------------------------|
E|--------------------------------0--0--|

e|--------------------------------------|
B|--3--3--3--3---X--X-----X--X--X--3----|
G|--X--X--X--X---X--X--X--X--X--X--X----|
D|--5--5--5--5---X--X--X--X--X--X--5----|
A|--5--5--5--5---------X-----------5----|
E|--------------------------------------|


************************************

| x   Dead note
| h   Hammer-on
| p   Pull-off
| b   Bend
| /   Slide up
| bbb Bend, unbend, bend again

************************************

            
            
Suggest correction
Creating personal tab
Creating personal tab
You can edit any tab online and save it as your Personal.

You can edit, replace or remove any tab part or add personal notes – all changes will be seen only by you.

Personal tabs can be accessed anytime from any device, even offline.
Learn more »
comments
print report bad tab
15 comments total. Showing first comments.
+1 reply
St.Jimmy13 37 Feb 13, 2007 06:06 PM

good good

0 reply
PDMChubby 142 Feb 19, 2007 11:55 AM

how do u pull from 2 to 4?

0 reply
snazzy guy 70 Feb 20, 2007 02:20 PM

Sorry, Chubby, good point.

guest
You may want to rate the tab now too:
select rating
Wanna post a correction for this tab? Suggest correction