Oops, an error
Loading. Please wait.

People Are Strange Bass Tab

version 1
version 1

Whole song

Interactive

44,995 views 66 this week
1 commentread comment
1 2 3 4 5
x 17
add to favorites
launch autoscroll
font size
0
reset
guitar tuner
×
Best way to learn
"People Are Strange"
Autoscroll
slow
fast
+/-
esc
set tempo
stop
The Doors - "People Are Strange" - Bass Tab

[Verse]
                            .                   
G|----------|-----------|---4------|
D|*---4---4-|-----------|---------*|
A|*-2---2---|---5-------|-2---R-R-*| (x2)
E|----------|-3---2-3-5-|----------|
   1 2 3 4   1 2 3 & 4   1 2 3 4

G|-----------|-----------|-----------|-----------------|
D|---4-----4-|---4-----4-|---4-----4-|-----------------|
A|-2---5-2---|-2---5-2---|-2---5-2---|-2-2-0-0---------|
E|-----------|-----------|-----------|---------3-3-2-2-|
  1 2 & 3 4   1 2 & 3 4   1 2 & 3 4   1 & 2 & 3 & 4 &

[Chorus]

G|------------|-------------|-------------|----------------|
D|*-----2-0---|-----2-------|-----2-------|---1---4---2---*|
A|*---2-----2-|-0-3---2-----|-0-3---2-----|-2-------2---2-*|
E|--0---------|-----------2-|-----------2-|----------------|(x2)
   1 2 3 4 &   1 2 3 4 & a   1 2 3 4 & a   1 2 & a 3 & 4

[Solo]
                    _____          ____
                                           |1.            |2.   
G|------4-----|-----4-----|-----------|--------------|---------|
D|*---4-----4-|---4-----4-|-----2-0---|-----2---2-4-*|---------|
A|*-2-----0---|-2-----0---|---2-----2-|---2---0-----*|-.-------|
E|------------|-----------|-0---------|-0------------|-0-------|
   1 2 3 4 &   1 2 3 4 &   1 2 3 4 &   1 2 3 & 4 &    1 2 3 4

[End]

G|-----4---|-----------|---------|---------|---------|---------|
D|---4---4-|-----------|---4---4-|---4---4-|---------|---4---4-|
A|-2-------|---5-----0-|-2---2---|-2---2---|---5---5-|-2---2---|
E|---------|-3---2-3---|---------|---------|-3---3---|---------|
  1 2 3 4   1 2 3 & 4   1 2 3 4   1 2 3 4   1 2 3 4   1 2 3 4

G|---------|---------|
D|---------|---------|
A|-2---2---|-2---2---|
E|---------|---------|
  1 2 3 4   1 2 3 4


************************************

| *  Natural harmonic
| .  Staccato

************************************
Suggest correction
comments
print report bad tab
1 comment total.
0 reply
yoshiedsaur 31 Apr 12, 2013 01:40 PM

Intro g4 g2 g0 d4 in a simple 1234 steady start.

guest
You may want to rate the tab now too:
select rating
Wanna post a correction for this tab? Suggest correction