Oops, an error
Loading. Please wait.

People Are Strange Tab

version 1
version 1

Interactive

595,221 views 855 this week
22 commentsread comments
1 2 3 4 5
excellent!
x 105
add to favorites
launch autoscroll
font size
0
reset
how to read this tab
guitar tuner
Tab Pro tools
  • play this tab
  • loop segment
  • change instrument
  • show fretboard
  • metronome
×
Best way to learn
"People Are Strange"
Autoscroll
slow
fast
+/-
esc
set tempo
stop
People are Strange
from Strange Days 
by The Doors

|--3--| indicates the three notes above are tripplets.  If you don't
        read enough music to know this rythum don't worry about it.
        It is not that important.

A7 -0-       B7 -2-
   -2-          -4-
   -0-          -2-
   -2-          -4-
   -0-          -2-
   -0-          -2-

            Em                           A7
e|-------|-----------------------------|--------------------------------|
B|-------|-----------------------------|--------------------------------|
G|-------|-------------0---------------|-------------2--0---------------|
D|-------|---------2-----------2-------|------2---------------2---------|
A|--0----|-----2------------------2--1-|-0-------------------------2--1-|
E|-----3-|--0--------------------------|--------------------------------|
           People are strange           when you're a  stran-ger

 A7                            B              Em
e|---------------------------|------------------------------|
B|---------------------------|------------------------------|
G|-----2----------0----------|------------------------------|
D|--2-------2----------------|-------------1----------------|
A|----------2--------0--1--2-|------2--------------2--0-----|
E|---------------------------|-2--------------0----------3--|
faces look ug-ly              when you're al-one.
                    |--3--|

 Em                            A7          
e|---------------------------|--------------------------------|
B|---------------------------|--------------------------------|
G|-----------0---------------|-------------2---0--------------|
D|------2------------2-------|------2----------------2--------|
A|--2-------------------2--1-|-0------------------------2--1--|
E|---------------------------|--------------------------------|
Wo-men seem wick-ed           When you're un-wanted

 A7                               B               Em
e|-----------------------------|-------------------------------------|
B|-----------------------------|-------------------------------------|
G|-------2---------------------|------------------------0-----0------|
D|--2---------2-----2----------|----------1----------------2---------|
A|---------------------0--1--2-|-----2-------------------------------|
E|---------------0-------------|--2--------------0-------------------|
Streets look un-   even             When you're down.  When you're
                       |--3--|


[Lyrics]


[Verse]

People are strange 
When you're a stranger
Faces look ugly 
When you're alone

Women seem wicked
When you're unwanted 
Streets are uneven
When you're down


[Chorus]

            B7
When you're strange 
G                     B7
Faces come out of the rain
B7
When you're strange 
G                     B7
No one remembers your name 
B7
When you're strange 
B7
When you're strange
B7
When you're strange
comments
print report bad tab
22 comments total. Showing first comments. show 2 bad comments
+1 reply
Dancing Fool wrote on August 29 2006, 06:54 pm

Haha. I love it how you say it sucks, but its got *****x 20

Great tab, man.

I want to post or [tab]
guest
You may want to rate the tab now too:
select rating
Please do not post tabs as comments. Select "correction" instead!