Oops, an error
Loading. Please wait.

People Are Strange Tab

version 3
version 3
331,997 views 1,170 this week
14 commentsread comments
1 2 3 4 5
excellent!
x 96
add to favorites
launch autoscroll
font size
0
reset
how to read this tab
guitar tuner
Tab Pro tools
  • play this tab
  • loop segment
  • change instrument
  • show fretboard
  • metronome
×
Best way to learn
"People Are Strange"
Autoscroll
slow
fast
+/-
esc
set tempo
stop
Contributor
Artist: The Doors
Song:People are Strange
Album:Strange Days

Transcribed by:Cameron Berry


If you have any comments or suggestions email me at dumdude313@yahoo.com




Intro
E--------|---------------|---------------|-----------------|
B--------|---------------|---------------|-----------------|
G--------|-------0-------|-----2-0-------|-----2---0-------|
D--------|-----2---2-----|---2-----2-----|---2---2---------|
A--2-0---|---2-------2-1-|-0---------2-1-|-0-----2---0h1h2-|
E------3-|-0-------------|---------------|-----------------|

E----------------|---------------|---------------|-------------------|
B----------------|---------------|---------------|-------------------|
G----------------|-------0-------|-----2-0-------|-----2-------------|
D------1---------|-----2---2-----|---2-----2-----|---2---2---2-------|
A----2-----2-0---|---2-------2-1-|-0---------2-1-|-0-----------0h1h2-|
E--2-----0-----3-|-0-------------|---------------|---------0---------|

                  Chorus  
E----------------|-----2-----------|-----3-----3------|-------------|
B----------------|-----4-----4-----|-----3-----3------|-----10b-----|
G----------0---0-|-----2-----2-----|------------------|-------------|
D------1-----2---|-----4-----------|------------------|-------------|
A----2-----------|-----------------|------------------|-------------|
E--2-----0-------|-----------------|------------------|-------------|

E-----7-----7-----|-----3-----3-----|-------------|-----7-----7-----|
B-----7-----7-----|-----3-----3-----|-----10b-----|-----7-----7-----|
G-----------------|-----------------|-------------|-----------------|
D-----------------|-----------------|-------------|-----------------|
A-----------------|-----------------|-------------|-----------------|
E-----------------|-----------------|-------------|-----------------|

E-----7-----7-----|-----7-----7-----|-----7-----7-----|------------12-----|
B-----7-----7-----|-----7-----7-----|-----7-----7-----|-----12-----12-----|
G-----------------|-----------------|-----------------|------9------------|
D-----------------|-----------------|-----------------|-------------------|
A-----------------|-----------------|-----------------|-------------------|
E-----------------|-----------------|-----------------|-------------------|

E-----5-----12-----|-----5-----12-----|-----5----12-----|-----12-----12----|
B-----5-----12-----|-----5-----12-----|-----5-----0-----|-----12-----12----|
G------------------|------------------|-----------------|------------------|
D------------------|------------------|-----------------|------------------|
A------------------|------------------|-----------------|------------------|
E------------------|------------------|-----------------|------------------|

E-----5-----12-----|-----5-----12-----|-----5------------|
B-----5-----12-----|-----5-----12-----|-----5-----12-----|
G------------------|------------------|------------9-----|
D------------------|------------------|------------------|
A------------------|------------------|------------------|
E------------------|------------------|------------------|


Solo
E--5b-5p3p0--------|---------------|-15v-12---------------|
B-----------3p0----|-0-3/12-15b----|--------15-12---------|
G---------------2b-|------------14-|-------------14b-12---|
D------------------|---------------|-------------------14-|
A------------------|---------------|----------------------|
E------------------|---------------|----------------------|

E------------3-5-----|--------------------|------------------|
B--------5-5-----5-3-|-5b-5b-5b-0-3h5p3p0-|------------------|
G--12/14-------------|--------------------|-2b-2p0---0h2-4-4-|
D--------------------|--------------------|--------2---------|
A--------------------|--------------------|------------------|
E--------------------|--------------------|------------------|

E------------------|
B--3---------------|
G----4-4/2-0-------|
D------------2-0-2-|
A------------------|


Chorus
E-----2-----------|-----3-----3------|-------------|
B-----4-----4-----|-----3-----3------|-----10b-----|
G-----2-----2-----|------------------|-------------|
D-----4-----------|------------------|-------------|
A-----------------|------------------|-------------|
E-----------------|------------------|-------------|

E-----7-----7-----|-----3-----3-----|-------------|-----7-----7-----|
B-----7-----7-----|-----3-----3-----|-----10b-----|-----7-----7-----|
G-----------------|-----------------|-------------|-----------------|
D-----------------|-----------------|-------------|-----------------|
A-----------------|-----------------|-------------|-----------------|
E-----------------|-----------------|-------------|-----------------|

E-----7-----7-----|-----7-----7-----|-----7-----7-----|------------12-----|
B-----7-----7-----|-----7-----7-----|-----7-----7-----|-----12-----12-----|
G-----------------|-----------------|-----------------|------9------------|
D-----------------|-----------------|-----------------|-------------------|
A-----------------|-----------------|-----------------|-------------------|
E-----------------|-----------------|-----------------|-------------------|

E-----5-----12-----|-----5-----12-----|-----5----12-----|-----12-----12----|
B-----5-----12-----|-----5-----12-----|-----5-----0-----|-----12-----12----|
G------------------|------------------|-----------------|------------------|
D------------------|------------------|-----------------|------------------|
A------------------|------------------|-----------------|------------------|
E------------------|------------------|-----------------|------------------|

E-----5-----12-----|-----5-----12-----|------------12-----|
B-----5-----12-----|-----5-----12-----|------9-----12-----|
G------------------|------------------|-----12------------|
D------------------|------------------|-------------------|
A------------------|------------------|-------------------|
E------------------|------------------|-------------------|


Outro
E--------2-----|-3-----3---3-7------7-|-------2---|-----3---3-|
B----------0---|-----3---3-------10---|-----------|-----3---3-|
G------2-----4-|---4-----------8------|-----2---4-|---4---4---|
D----1---------|-------------7--------|---1-------|-5---------|
A--2-----------|----------------------|-2---------|-----------|
E--------------|----------------------|-----------|-----------|

E--7------7---|---7------|---7---|---------2-|
B------10-----|-----10---|-----7-|-------0---|
G----8------8-|-8------8-|-8-----|-----2-----|
D-------------|----------|-------|---1-------|
A-------------|----------|-------|-2---------|
E-------------|----------|-------|-----------|
comments
print report bad tab
14 comments total. Showing first comments.
+1 reply
Gibson01 wrote on July 22 2005, 12:00 am

Great Tab

0 reply
thelordofguitar wrote on January 15 2006, 10:53 am

best tab

0 reply
the_bear_shark wrote on February 19 2006, 11:28 am

awesome tab

I want to post or [tab]
guest
You may want to rate the tab now too:
select rating
Please do not post tabs as comments. Select "correction" instead!