Oops, an error
Loading. Please wait.

People Are Strange Tab

version 7
version 7

Whole song

Interactive

505 views 36 this week
no commentswrite comment
1 2 3 4 5
x 3
add to favorites
launch autoscroll
font size
0
reset
how to read this tab
guitar tuner
Autoscroll
slow
fast
+/-
esc
set tempo
stop
Help us to improve Ultimate-Guitar.com Take our survey!
×
Author
About this tab version
This is the official tab from the Doors. Was this info helpful? Yes No
People Are Strange


[Intro]

e|-------------|
B|-------------|
G|-------------|
D|-------------|
A|--2--0-------|
E|--------3b---|


[Verse]

    Em                          Am             Em          Am              Em
e|---------------------------|---------------------------|-----------------------------------|
B|---------------------------|---------------------------|-----------------------------------|
G|-----------0---------------|--------2--0---------------|------------2---------0------------|
D|--------2--------2---------|-----2-----------2---------|-------2---------2-----------------|
A|-----2--------------2--1---|--0-----------------2--1---|--0--------------2----------0h1/2--|
E|--0------------------------|---------------------------|-----------------------------------|

    B        Em                  Em                           Am       Em
e|----------------------------|----------------------------|----------------------------|
B|----------------------------|----------------------------|----------------------------|
G|----------------------------|-----------0----------------|--------2--0----------------|
D|--------1-------------------|--------2--------2----------|-----2-----------2----------|
A|-----2-----------2--0-------|-----2--------------2--1----|--0-----------------2--1----|
E|--2--------0-----------3----|--0-------------------------|----------------------------|

    Am              Em                       B        Em
e|----------------------------------------|-------------------------|
B|----------------------------------------|-------------------------|
G|----------2-----------------------------|--------------------0----|
D|------2-------2--------2----------------|--------1--------2-------|
A|--0-------------------------0h1/2-------|-----2--------2----------|
E|------------------0---------------------|--2--------0-------------|


[Chorus]


    B7              G               B           B               G                B         B
e|--2------------|--3----3-------|--7--------|--7----7-------|--3----3-------|---7------|--7----7-------|
B|--4----4-------|--3----3-------|--7--------|--7----7-------|--3----3-------|---7------|--7----7-------|
G|--2----2-------|--4----4-------|--8--------|--8----8-------|--4----4-------|---8------|--8----8-------|
D|-------4-------|---------------|-----------|---------------|---------------|----------|---------------|
A|---------------|---------------|-----------|---------------|---------------|----------|---------------|
E|---------------|---------------|-----------|---------------|---------------|----------|---------------|
    .    .          .     .         .           .    .          .    .           .         .    .

          B                            B                            B
e|--------7-----------7-------|--------7-----------7-------|--------7-----------7-------|
B|--------7-----------7-------|--------7-----------7-------|--------7-----------7-------|
G|--------8-----------8-------|--------8-----------8-------|--------8-----------8-------|
D|----------------------------|----------------------------|----------------------------|
A|----------------------------|----------------------------|----------------------------|
E|----------------------------|----------------------------|----------------------------|
          .           .                .           .                .           .


[Verse]


     Em                      Am          Em          Am          Em
e|---12----------12------|---5-----------12------|---5-----------12------|
B|---12----------12------|---5-----------12------|---5-----------12------|
G|---12----------12------|---5-----------12------|---5-----------12------|
D|-----------------------|-----------------------|-----------------------|
A|-----------------------|-----------------------|-----------------------|
E|-----------------------|-----------------------|-----------------------|
     .           .           .           .           .           .

     B           Em          Em                      Am          Em          Am          Em
e|---7-----------12------|---12----------12------|---5-----------12------|---5-----------12------|
B|---7-----------12------|---12----------12------|---5-----------12------|---5-----------12------|
G|---8-----------12------|---12----------12------|---5-----------12------|---5-----------12------|
D|-----------------------|-----------------------|-----------------------|-----------------------|
A|-----------------------|-----------------------|-----------------------|-----------------------|
E|-----------------------|-----------------------|-----------------------|-----------------------|
     .           .           .           .           .           .           .           .


[Solo 1]

Guitar 1

     B           Em          B                       B                       Em
e|---7-----------12------|---7-----------7-------|---7-----------7-------|---12----------12------|
B|---7-----------12------|---7-----------7-------|---7-----------7-------|---12----------12------|
G|---8-----------12------|---8-----------8-------|---8-----------8-------|---12----------12------|
D|-----------------------|-----------------------|-----------------------|-----------------------|
A|-----------------------|-----------------------|-----------------------|-----------------------|
E|-----------------------|-----------------------|-----------------------|-----------------------|
     .           .           .           .           .           .           .           .

     Em                      B                       B                       Em
e|---12----------12------|---7-----------7-------|---7-----------7-------|---12----------12------|
B|---12----------12------|---7-----------7-------|---7-----------7-------|---12----------12------|
G|---12----------12------|---8-----------8-------|---8-----------8-------|---12----------12------|
D|-----------------------|-----------------------|-----------------------|-----------------------|
A|-----------------------|-----------------------|-----------------------|-----------------------|
E|-----------------------|-----------------------|-----------------------|-----------------------|
     .           .           .           .           .           .           .           .

    Em
e|--12-------------------|
B|--12-------------------|
G|--12-------------------|
D|-----------------------|
A|-----------------------|
E|-----------------------|
    .

Guitar 2

    B         B
e|--5pb7-|-pbr(5)----------5h3p0----------|--------------------------------|
B|-------|-----------------------3p0------|--0--3/12---15b16---------------|
G|-------|---------------------------2b4--|---------------------14---------|
D|-------|--------------------------------|--------------------------------|
A|-------|--------------------------------|--------------------------------|
E|-------|--------------------------------|--------------------------------|

    Em
e|--15~~~--12---------------------------------|
B|-------------15---12------------------------|
G|---------------------------14b16br14p12-----|
D|----------------------------------------14--|
A|--------------------------------------------|
E|--------------------------------------------|

                               B
e|--------0--0--3--5p0-----|---------------------------|
B|----------------------3--|--5b7-5b7-5b6--0--3h5p3hp0-|
G|--12-14------------------|---------------------------|
D|-------------------------|---------------------------|
A|-------------------------|---------------------------|
E|-------------------------|---------------------------|

e|----------------------------|
B|--------------------0-------|
G|--2b4---2p0-----0h2-----/4~~|
D|-------------2--------------|
A|----------------------------|
E|----------------------------|

     Em
e|------------------------------------|-----|
B|--------3---------------------------|-----|
G|~~(4)~------g2/4-g4\2--0------------|-----|
D|---------------------------2-----0--|--2--|
A|------------------------------------|-----|
E|------------------------------------|-----|
                                         .

[Chorus]

     B                       G                       B
e|---7-----------7-------|---3-----------3-------|---7-------------------|
B|---7-----------7-------|---3-----------3-------|---7-------------------|
G|---8-----------8-------|---4-----------4-------|---8-------------------|
D|-----------------------|-----------------------|-----------------------|
A|-----------------------|-----------------------|-----------------------|
E|-----------------------|-----------------------|-----------------------|
     .           .           .           .           .

     B                       G                       B                       B
e|---7-----------7-------|---3-----------3-------|---7-------------------|---7-----------7-------|
B|---7-----------7-------|---3-----------3-------|---7-------------------|---7-----------7-------|
G|---8-----------8-------|---4-----------4-------|---8-------------------|---8-----------8-------|
D|-----------------------|-----------------------|-----------------------|-----------------------|
A|-----------------------|-----------------------|-----------------------|-----------------------|
E|-----------------------|-----------------------|-----------------------|-----------------------|
     .           .           .           .           .                       .           .

     B                       B                       B
e|---7-----------7-------|---7-----------7-------|---7-----------7-------|
B|---7-----------7-------|---7-----------7-------|---7-----------7-------|
G|---8-----------8-------|---8-----------8-------|---8-----------8-------|
D|-----------------------|-----------------------|-----------------------|
A|-----------------------|-----------------------|-----------------------|
E|-----------------------|-----------------------|-----------------------|
     .           .           .           .           .           .


[Solo 2]

     Em                   Am       Em          Am      Em          B       Em          B       Em
e|---12-------12------|---5--------12------|---5-------12------|---7-------12------|---7-------12-----||
B|---12-------12------|---5--------12------|---5-------12------|---7-------12------|---7-------12-----||
G|---12-------12------|---5--------12------|---5-------12------|---8-------12------|---8-------12-----||
D|--------------------|--------------------|-------------------|-------------------|------------------|| x2
A|--------------------|--------------------|-------------------|-------------------|------------------||
E|--------------------|--------------------|-------------------|-------------------|------------------||
     .        .           .        .           .       .           .       .           .       .


[Chorus]

    B7                           G
e|-----------2----------------|--3--------3----------------|
B|-----------------0----------|--------3--------3----------|
G|--------2-------------------|-----4----------------------|
D|-----1----------------------|--------------------5-------|
A|--2-------------------------|----------------------------|
E|----------------------------|----------------------------|

    B7                              B7
e|--7--------------7----------|-----------2----------------|
B|-----------10---------------|-----------------0----------|
G|--------8-------------------|--------------------2-------|
D|--9-------------------------|--------1-------------------|
A|----------------------------|-----2----------------------|
E|----------------------------|----------------------------|

    G                            B7
e|--3--------3----------------|--7-----7--7----------------|
B|-----3-----------3----------|-----------10---------------|
G|--------4-------------------|--------8--------------8----|
D|--------------------5-------|----------------------------|
A|----------------------------|----------------------------|
E|----------------------------|----------------------------|

          B7                           B7
e|-----------7----------------|-----------7----------------|
B|-----------------10---------|-----------------7----------|
G|--------8--------------8----|--------8-------------------|
D|----------------------------|----------------------------|
A|----------------------------|----------------------------|
E|----------------------------|----------------------------|


[End]

    B7
e|--------------2---------|
B|-----------0------------|
G|--------2---------------|
D|-----1------------------|
A|--2---------------------|
E|------------------------|


************************************

| h   Hammer-on
| p   Pull-off
| b   Bend
| br  Bend release
| pb  Pre-bend
| /   Slide up
| ~   Vibrato
|(n)  Ghost note
| .   Staccato
| g   Grase note

************************************
Give kudos to tab author, rate the tab!
1 2 3 4 5
comments
print report bad tab
guest
You may want to rate the tab now too:
select rating