Oops, an error
Loading. Please wait.

Riders On The Storm Tab

version 5
version 5

Whole song

568 views 27 this week
1 commentread comment
1 2 3 4 5
1 last vote to show rating
add to favorites
launch autoscroll
font size
0
reset
how to read this tab
guitar tuner
Autoscroll
slow
fast
+/-
esc
set tempo
stop
Help us to improve Ultimate-Guitar.com Take our survey!
×
Author
About this tab version
This is the official tab from the Doors. Was this info helpful? Yes No
[Intro]

Bass Guitar and Electric Piano


[Verse 1]

   Em
e|--------------------|------------------------|
B|--------------------|------------------------|
G|--------------------|------------------------|
D|--------------------|---2-----2-----0--0h2---|
A|--------------------|------------------------|
E|--------------------|------------------------|

   Em
e|--------------------|-----------------------------------|
B|--------------------|-----------------------------------|
G|--------------------|-----------------------------------|
D|--------------------|---2----2--2---0---0h2---0---------|
A|--------------------|------------------------------2----|
E|--------------------|-----------------------------------|

   Am
e|----------------------|
B|----------------------|
G|----------------------|
D|----------------------|
A|--0-------------------|
E|----------------------|

                               Em
e|----------------------------|---------------------------|
B|----------------------------|---------------------------|
G|----------------------------|---------------------------|
D|----------------------------|---------------------------|
A|--0----0--0---3b---0--------|---------------------------|
E|----------------------------|--0------------------------|
 
e|----------------------------|
B|----------------------------|
G|----------------------------|
D|----0h2---0-----------------|
A|--------------2--0----------|
E|-----------------------3--0-|

   D           C        Em
e|---------|---------|---------|
B|---------|---------|---------|
G|---------|--0------|---------|
D|---------|--2------|---------|
A|--0------|--3------|---------|
E|---------|---------|--0------|


[Verse 2]

  Em
e|------------------------------|
B|-0-----0---2---------2---2/3--|
G|----0-----------0-------------|
D|------------------------------|
A|------------------------------|
E|------------------------------|


e|------------------------|
B|----3--3\2--------2-----|
G|-0------------0------0--|
D|------------------------|
A|------------------------|
E|------------------------|


e|------------------------------|
B|-0-----0---0h2---------2---3--|
G|----0--------------0----------|
D|------------------------------|
A|------------------------------|
E|------------------------------|


e|--------------------|
B|---3--3\2------2----|
G|-0----------0----0--|
D|--------------------|
A|--------------------|
E|--------------------|

Am
e|----------7--7---|
B|--5--5----7--7---|
G|-----------------|
D|--7--------------|
A|-----------------|
E|-----------------|
    .       .

e|--8--8--------10-10-|
B|--8--8--------12-12-|
G|--9--9--------11-11-|
D|--------------------|
A|--------------------|
E|--------------------|
    .           .
        
Em
e|------------------------------|
B|-0------0---0h2-------2---2/3-|
G|----0-------------0-----------|
D|------------------------------|
A|------------------------------|
E|------------------------------|


e|--------------------------|
B|----3---3\2--------2------|
G|-0------------0--------2--|
D|--------------------------|
A|--------------------------|
E|--------------------------|

    D
e|--2--------2--------2--------2--------2----|
B|--3--------3--------3--------3--------3----|
G|--2--------2--------2--------2-------------|
D|--0--------0--------0--------0-------------|
A|-------------------------------------------|
E|-------------------------------------------|

        C               Em
e|--2----------------|-------------------------|
B|--3--1--------1----|--0-----0--2-------2--3--|
G|--2--0-----0--0----|-----0-----------0-------|
D|--0--2--------2----|-------------------------|
A|-----3--------3----|-------------------------|
E|-------------------|-------------------------|
    .
        
e|-------------|
B|---3---3\2---|
G|-0-----------|
D|-------------|
A|-------------|
E|-------------|


[Guitar Solo 1]

  Em
e|---------------------|
B|---------------------|
G|-------------0-------|
D|--2---2--2-------2---|
A|---------------------|
E|---------------------|


e|-------------------------0-|
B|-------------------0h2-----|
G|-------------0h2-----------|
D|------0h2------------------|
A|-0h2-----------------------|
E|---------------------------|
                           .
 
e|----0--0-------|
B|-0--------3--0-|
G|---------------|
D|---------------|
A|---------------|
E|---------------|


e|-----------------------------------------|
B|-----------------------------------------|
G|-2b3----2p0------------------------------|
D|--------------2-----2-----------0--------|
A|--------------------------------------2--|
E|-----------------------------------------|

  Am
e|------------------------|
B|------------------------|
G|------------------------|
D|------------------------|
A|--0---0--0-----3b----0--|
E|------------------------|


e|--------------------------------------|
B|------------------------2p0-----------|
G|-------------2p0--------------2---2/4-|
D|--2p0--------------2------------------|
A|--------2-----------------------------|
E|--------------------------------------|
          .          .          .
                  
  Em
e|---------------------|
B|---------------------|
G|--4\2---0--------2/4-|
D|-------------2-------|
A|---------------------|
E|---------------------|


e|-----------------------|
B|-----------------------|
G|--4----4\2-0--2/4---0--|
D|-----------------------|
A|-----------------------|
E|-----------------------|

    D
e|---------2----------2--------2----|
B|---------3----------3--------3----|
G|---------2----------2--------2----|
D|--0------0-------0--0--------0----|
A|----------------------------------|
E|----------------------------------|
 
      C                Em
e|-------------0----|------|
B|-------------1----|--0---|
G|----0--------0----|--0---|
D|----2--------2----|--2---|
A|----3-------------|------|
E|------------------|------|


e|-------------------------------|
B|--------------0h2---------2---3|
G|--4------4------------0--------|
D|-----5-------------------------|
A|-------------------------------|
E|-------------------------------|
           .
                   
e|----------|
B|----3--2--|
G|--0-------|
D|----------|
A|----------|
E|----------|


[Verse 3]

  Em
e|------------------------------|
B|-0-----0---2---------2---2/3--|
G|----0-----------0-------------|
D|------------------------------|
A|------------------------------|
E|------------------------------|


e|------------------------|
B|----3--3\2--------2-----|
G|-0------------0------0--|
D|------------------------|
A|------------------------|
E|------------------------|


e|------------------------------|
B|-0-----0---0h2---------2---3--|
G|----0--------------0----------|
D|------------------------------|
A|------------------------------|
E|------------------------------|


e|--------------------|
B|---3--3\2------2----|
G|-0----------0----0--|
D|--------------------|
A|--------------------|
E|--------------------|

Am
e|----------7--7---|
B|--5--5----7--7---|
G|-----------------|
D|--7--------------|
A|-----------------|
E|-----------------|
    .       .

e|--8--8--------10-10-|
B|--8--8--------12-12-|
G|--9--9--------11-11-|
D|--------------------|
A|--------------------|
E|--------------------|
    .            .
        
e|-----------------------------|
B|-0------0---0h2-------2---2/3|
G|----0-------------0----------|
D|-----------------------------|
A|-----------------------------|
E|-----------------------------|


e|--------------------------|
B|----3---3\2--------2------|
G|-0------------0--------2--|
D|--------------------------|
A|--------------------------|
E|--------------------------|
    
        D
e|--2--------2--------2--------2--------2----|
B|--3--------3--------3--------3--------3----|
G|--2--------2--------2--------2-------------|
D|--0--------0--------0--------0-------------|
A|-------------------------------------------|
E|-------------------------------------------|

       C               Em
e|--2----------------|-------------------------|
B|--3--1--------1----|--0-----0--2-------2--3--|
G|--2--0-----0--0----|-----0-----------0-------|
D|--0--2--------2----|-------------------------|
A|-----3--------3----|-------------------------|
E|-------------------|-------------------------|
    .
        
e|-------------|
B|---3---3\2---|
G|-0-----------|
D|-------------|
A|-------------|
E|-------------|


[Keyboard Solo]

  Em
e|--12\---|--------|-12\---12\--|---------|
B|--12\---|--------|------------|---------|
G|--12\---|--------|-9\----9\---|---------|
D|--------|--------|------------|---------|
A|--------|--------|------------|---------|
E|--------|--------|------------|---------|


e|-12--12-12--12\---|-------------|
B|-12--12-12--12\---|-------------|
G|-12--12-12--12\---|-------------|
D|------------------|-------------|
A|------------------|-------------|
E|------------------|-------------|


e|--------------|----------------|
B|-14----12\----|---14-----12\---|
G|-14----12\----|---14-----12\---|
D|--------------|----------------|
A|--------------|----------------|
E|--------------|----------------|


e|-12--x-x--14---|
B|---------------|
G|-9---x-x--11---|
D|---------------|
A|---------------|
E|---------------|


e|---15---14---|
B|---15---14---|
G|---16---14---|
D|-------------|
A|-------------|
E|-------------|


e|--12--x-x--14---|
B|----------------|
G|--9---x-x--11---|
D|----------------|
A|----------------|
E|----------------|


e|-15--15-15---14---|
B|-15--15-15---14---|
G|-16--16-16---14---|
D|------------------|
A|------------------|
E|------------------|


e|-12--12-12--14---|
B|-12--12-12--14---|
G|-12--12-12--14---|
D|-----------------|
A|-----------------|
E|-----------------|


e|-12--10--9--|
B|-12--10--10-|
G|-12--11--11-|
D|------------|
A|------------|
E|------------|
   .    .   
   
e|-12---x---9--9--9------|
B|------x---10-10-10-----|
G|-9----x---11-11-11-----|
D|-----------------------|
A|-----------------------|
E|-----------------------|


e|-12---------------------------|
B|----8--9--10--11--12--13--14--|
G|-9----------------------------|
D|----5--6--7---8---9---10--11--|
A|------------------------------|
E|------------------------------|
   .
   
e|-----12\--------|--------10-------9----------|--------14-------5----------|
B|-----12\--------|--------12-------10---------|-----------------7----------|
G|-----12\--------|--------11-------11---------|--------11-------6----------|
D|----------------|----------------------------|----------------------------|
A|----------------|----------------------------|----------------------------|
E|----------------|----------------------------|----------------------------|


e|--10----------------------5--5--5-----5-------------|
B|--12----------7-----------7--7--7-----7-------------|
G|--11----------7-----7-----6--6--6-----6-------------|
D|--------------5-------------------------------------|
A|----------------------------------------------------|
E|----------------------------------------------------|
                                        .
    
e|--------------------5--5-----5-------------|
B|-----7--------x-----7--7-----7-------------|
G|-----7--------x-----6--6-----6-------------|
D|-----5--------x-----5--5-----5-------------|
A|-----7--------x----------------------------|
E|-------------------------------------------|


e|--------------------5--5-----5-------------|
B|-----7--------x-----7--7-----7-------------|
G|-----7--------x-----6--6-----6-------------|
D|-----5--------x-----5--5-----5-------------|
A|-----7--------x----------------------------|
E|-------------------------------------------|


e|--------------------5--5-----5-------------|
B|-----7--------x-----7--7-----7-------------|
G|-----7--------x-----6--6-----6-------------|
D|-----5--------x-----5--5-----5-------------|
A|-----7--------x----------------------------|
E|-------------------------------------------|


e|--------------------5--5-----5-------------|
B|-----7--------x-----7--7-----7-------------|
G|-----7--------x-----6--6-----6-------------|
D|-----5--------x-----5--5-----5-------------|
A|-----7--------x----------------------------|
E|-------------------------------------------|


e|--------------------5--5-----5-------------|
B|-----7--------x-----7--7-----7-------------|
G|-----7--------x-----6--6-----6-------------|
D|-----5--------x-----5--5-----5-------------|
A|-----7--------x----------------------------|
E|-------------------------------------------|


e|-----------------------------5-------------|
B|-----7--------x--x-----------7-------------|
G|-----7--------x--x-----------6-------------|
D|-----5--------x--x-----------5-------------|
A|-----7--------x--x-------------------------|
E|-------------------------------------------|


e|------12----------------14-------14---------|
B|------12----------------14-------14---------|
G|------9-----------------14-------11---------|
D|--------------------------------------------|
A|--------------------------------------------|
E|--------------------------------------------|
                          .

e|--15-------15-------14-14-------14---|
B|--15-------15-------14-14-------14---|
G|--12-------12-------11-11-------11---|
D|-------------------------------------|
A|-------------------------------------|
E|-------------------------------------|
                                  .

e|-----12----------14-------15-------14------------|
B|-----12----------14-------15-------14------------|
G|-----9-----------11-------12-------11------------|
D|-------------------------------------------------|
A|-------------------------------------------------|
E|-------------------------------------------------|
        .          .         .        

e|-----12----------14-------15-------14------------|
B|-----12----------14-------15-------14------------|
G|-----9-----------11-------12-------11------------|
D|-------------------------------------------------|
A|-------------------------------------------------|
E|-------------------------------------------------|
        .          .         .        
                
e|-----12----------14-------15-------14------------|
B|-----12----------14-------15-------14------------|
G|-----9-----------11-------12-------11------------|
D|-------------------------------------------------|
A|-------------------------------------------------|
E|-------------------------------------------------|
        .          .         .        
                
e|-----12------------------------------------------|
B|-----------------14-------12-------14------------|
G|-----9-------------------------------------------|
D|-----------------11-------9--------11------------|
A|-------------------------------------------------|
E|-------------------------------------------------|


e|-----12------------------------------------------|
B|-----------------14-------12-------14------------|
G|-----9-------------------------------------------|
D|-----------------11-------9--------11------------|
A|-------------------------------------------------|
E|-------------------------------------------------|


e|-----12------------------------------------------|
B|-----------------14-------12-------14------------|
G|-----9-------------------------------------------|
D|-----------------11-------9--------11------------|
A|-------------------------------------------------|
E|-------------------------------------------------|


e|-----12-------10----------------10----12-----------|
B|-----------------------12--------------------------|
G|-----9--------7-----------------7-----9------------|
D|-----------------------9---------------------------|
A|---------------------------------------------------|
E|---------------------------------------------------|
       .         .       .              .

e|-----12-------10----------------10----12-----------|
B|-----------------------12--------------------------|
G|-----9--------7-----------------7-----9------------|
D|-----------------------9---------------------------|
A|---------------------------------------------------|
E|---------------------------------------------------|
      .         .       .              .
          
e|-----12-------10----------------10----12-----------|
B|-----------------------12--------------------------|
G|-----9--------7-----------------7-----9------------|
D|-----------------------9---------------------------|
A|---------------------------------------------------|
E|---------------------------------------------------|
      .         .        .              .
          
e|-----12----------14-------15-------14------------|
B|-----12----------14-------15-------14------------|
G|-----9-----------11-------12-------11------------|
D|-------------------------------------------------|
A|-------------------------------------------------|
E|-------------------------------------------------|
       .            .        .
           
e|-----12----------14-------15-------14------------|
B|-----12----------14-------15-------14------------|
G|-----9-----------11-------12-------11------------|
D|-------------------------------------------------|
A|-------------------------------------------------|
E|-------------------------------------------------|
      .            .        .
          
e|-----12----------14-------15-------14------------|
B|-----12----------14-------15-------14------------|
G|-----9-----------11-------12-------11------------|
D|-------------------------------------------------|
A|-------------------------------------------------|
E|-------------------------------------------------|
      .            .        .
          
e|-----12-------12-------12-------12-12-12-----------|
B|-----12-------12-------12-------12-12-12-----------|
G|-----9--------9--------9--------9--9--9------------|
D|---------------------------------------------------|
A|---------------------------------------------------|
E|---------------------------------------------------|
                .        .              . 

e|---12-12----12----------12-------12----12-----------|
B|---12-12----12----------12-------12----12-----------|
G|---9--9-----9-----------9--------9-----9------------|
D|----------------------------------------------------|
A|----------------------------------------------------|
E|----------------------------------------------------|
                           .              .

e|---12-------12----------12-------12----12-----------|
B|---12-------12----------12-------12----12-----------|
G|---9--------9-----------9--------9-----9------------|
D|----------------------------------------------------|
A|----------------------------------------------------|
E|----------------------------------------------------|
      .        .          .              .

e|---12-------12----12-12-------12-------12--------|
B|---12-------12----12-12-------12-------12--------|
G|---9--------9-----9--9--------9--------9---------|
D|-------------------------------------------------|
A|-------------------------------------------------|
E|-------------------------------------------------|
      .        .                 .        .
   
e|--12--|
B|--12--|
G|--12--|
D|------|
A|------|
E|------|


[Interlude]  

e|------------------------------|
B|-0--------0---0/2-------2--3--|
G|------0-------------0---------|
D|------------------------------|
A|------------------------------|
E|------------------------------|


e|--------------------------|
B|-----3----3\2--------2----|
G|-0----------------0----0--|
D|--------------------------|
A|--------------------------|
E|--------------------------|


e|------------------------------|
B|-0--------0---0/2-------2--3--|
G|------0-------------0---------|
D|------------------------------|
A|------------------------------|
E|------------------------------|


e|--------------------------|
B|-----3----3\2--------2----|
G|-0----------------0----0--|
D|--------------------------|
A|--------------------------|
E|--------------------------|


e|------------------------------|
B|-0--------0---0/2-------2--3--|
G|------0-------------0---------|
D|------------------------------|
A|------------------------------|
E|------------------------------|

e|--------------------------|
B|-----3----3\2--------2----|
G|-0----------------0----0--|
D|--------------------------|
A|--------------------------|
E|--------------------------|


e|------------------------------|
B|-0--------0---0/2-------2--3--|
G|------0-------------0---------|
D|------------------------------|
A|------------------------------|
E|------------------------------|


e|--------------------------|
B|-----3----3\2--------2----|
G|-0----------------0----0--|
D|--------------------------|
A|--------------------------|
E|--------------------------|


[Verse 3]

  Em
e|------------------------------|
B|-0-----0---2---------2---2/3--|
G|----0-----------0-------------|
D|------------------------------|
A|------------------------------|
E|------------------------------|


e|------------------------|
B|----3--3\2--------2-----|
G|-0------------0------0--|
D|------------------------|
A|------------------------|
E|------------------------|


e|------------------------------|
B|-0-----0---0h2---------2---3--|
G|----0--------------0----------|
D|------------------------------|
A|------------------------------|
E|------------------------------|


e|--------------------|
B|---3--3\2------2----|
G|-0----------0----0--|
D|--------------------|
A|--------------------|
E|--------------------|

    Am
e|----------7--7---|
B|--5--5----7--7---|
G|-----------------|
D|--7--------------|
A|-----------------|
E|-----------------|
    .        .

e|--8--8--------10-10-|
B|--8--8--------12-12-|
G|--9--9--------11-11-|
D|--------------------|
A|--------------------|
E|--------------------|
    .            .

   Em
e|-----------------------------|
B|-0------0---0h2-------2---2/3|
G|----0-------------0----------|
D|-----------------------------|
A|-----------------------------|
E|-----------------------------|


e|--------------------------|
B|----3---3\2--------2------|
G|-0------------0--------2--|
D|--------------------------|
A|--------------------------|
E|--------------------------|

    D
e|--2--------2--------2--------2--------2----|
B|--3--------3--------3--------3--------3----|
G|--2--------2--------2--------2-------------|
D|--0--------0--------0--------0-------------|
A|-------------------------------------------|
E|-------------------------------------------|
      
           C                Em
e|--2----------------|-------------------------|
B|--3--1--------1----|--0-----0--2-------2--3--|
G|--2--0-----0--0----|-----0-----------0-------|
D|--0--2--------2----|-------------------------|
A|-----3--------3----|-------------------------|
E|-------------------|-------------------------|
    .

e|-------------|
B|---3---3\2---|
G|-0-----------|
D|-------------|
A|-------------|
E|-------------|


[Guitar Solo 2]

  Em
e|----------------------------|
B|----------------------------|
G|--9/11---9/11---9--7--9/11--|
D|----------------------------|
A|----------------------------|
E|----------------------------|


e|------------------------|
B|------------------------|
G|-9/11---11---9----7-----|
D|------------------------|
A|------------------------|
E|------------------------|

e|-----------------|
B|-----------------|
G|-9b11r9--7--6\4--|
D|-----------------|
A|-----------------|
E|-----------------|


e|--------------------|
B|--------------------|
G|-6---6b7r6---4--6---|
D|--------------------|
A|--------------------|
E|--------------------|


e|---------------------------------|
B|---------------------------------|
G|--4--2--4--4b6-pb6r4--4b6-4--x---|
D|---------------------------------|
A|---------------------------------|
E|---------------------------------|


e|-------------------------------|
B|-------------------------------|
G|--4--2------------2--4b6pb6r4--|
D|--------4------4---------------|
A|-------------------------------|
E|-------------------------------|


e|-----------|
B|-----------|
G|-2--4b6r4--|
D|-----------|
A|-----------|
E|-----------|


e|--------------|
B|--------------|
G|--9/11--9---7-|
D|--------------|
A|--------------|
E|--------------|


e|-----------|----------|
B|-----------|----------|
G|--9/11-----|-11\9--7--|
D|-----------|----------|
A|-----------|----------|
E|-----------|----------|


e|------------------|
B|------------------|
G|-6--7--6---4---2--|
D|------------------|
A|------------------|
E|------------------|


e|-----------------------|---------------|
B|-----------------------|---------------|
G|-4--2--------2--4--2---|-4--2--4b6r4---|
D|---------4-------------|---------------|
A|-----------------------|---------------|
E|-----------------------|---------------|


e|------------------------|
B|------------------------|
G|-2--4--2------4b7r4---2-|
D|----------4-------------|
A|------------------------|
E|------------------------|


e|------------------------|
B|------------------------|
G|----2-----------2--4----|
D|-4-----4--2--4----------|
A|------------------------|
E|------------------------|


e|-------------------------|
B|-------------------------|
G|-4b6----4--6--7----6--7--|
D|-------------------------|
A|-------------------------|
E|-------------------------|


e|--------------------|
B|--------------------|
G|-9-----9--7--9/11---|
D|--------------------|
A|--------------------|
E|--------------------|


e|------------|
B|------------|
G|--9/11b12---|
D|------------|
A|------------|
E|------------|


e|--------|
B|--------|
G|--9/11--|
D|--------|
A|--------|
E|--------|


e|-----12---------|
B|-----12---------|
G|----------------|
D|--11---------13-|
A|----------------|
E|----------------|


e|--14|-----5--------5-------|
B|--14|--7-----7-----------7-|
G|--14|-----------6-----6----|
D|----|----------------------|
A|----|----------------------|
E|----|----------------------|


e|----------------|--12---|--14---|-------|--12---||
B|----------------|--12---|--15---|--14---|--12---||
G|--7/12----------|--12---|--16---|--14---|--12---||
D|----------------|-------|-------|--14---|--12---||
A|----------------|-------|--15---|--14---|-------||
E|----------------|-------|-------|-------|-------||



************************************

| x   Dead note
| h   Hammer-on
| p   Pull-off
| r   Release
| b   Bend
| pb  Pre-bend
| /   Slide up
| \   Slide down

************************************
Give kudos to tab author, rate the tab!
1 2 3 4 5
comments
print report bad tab
1 comment total.
0 reply
ayreon77 17,805 Sep 09, 2016 06:54 PM

Cool I like this track alot

guest
You may want to rate the tab now too:
select rating