Oops, an error
Loading. Please wait.

Roadhouse Blues Bass Tab

version 2
version 2

Whole song

Interactive

42,095 views 12 this week
2 commentsread comments
1 2 3 4 5
accurate
x 16
add to favorites
launch autoscroll
font size
0
reset
guitar tuner
Tab Pro tools
  • play this tab
  • loop segment
  • change instrument
  • show fretboard
  • metronome
×
Best way to learn
"Roadhouse Blues"
Autoscroll
slow
fast
+/-
esc
set tempo
stop
Contributor
Difficulty
intermediate
Doors - Roadhouse Blues

     1  2  3   4     (denotes beat)
G: |---------------| 
D: |---------------| Repeat for Intro and Verses
A: |---------------|
E: |-0-00-00-0-567-|

G: |---------------| Pre-Chorus
D: |---------------|
A: |---------------|
E: |-0-00-00-0-----|


      q  q  q  q
G: |--------------| Chorus (six times)
D: |-----------4--|
A: |-----4--7-----|
E: |--5-----------|

G: |--------------| 
D: |--------------|
A: |--------------|
E: |-777777777777-|

G: |-------------|
D: |-------------|
A: |-4-4-4-4-----|
E: |-------------|
comments
print report bad tab
2 comments total.
0 reply
ChrisBassify wrote on August 9 2012, 02:44 pm

Lazy, check out version 4

0 reply
blancmangefac wrote on September 19 2015, 05:25 pm

very poor, can't get away with that, what.

I want to post or [tab]
guest
You may want to rate the tab now too:
select rating
Please do not post tabs as comments. Select "correction" instead!