Oops, an error
Loading. Please wait.
We have an official Roadhouse Blues tab made by UG professional guitarists. Check out the tab »
×
22,761 views 15 this week
1 commentread comment
1 2 3 4 5
x 5
add to favorites
×
Save as Personal and add changes to this tab that will be seen only by you. Learn more ›
×
You can save this tab as Personal to edit and correct it or add notes. All changes will be seen only by you. Learn more »
launch autoscroll
font size
0
reset
guitar tuner
backing track
0:00
0:00
edit
Autoscroll
slow
fast
+/-
esc
set tempo
stop
Author
Roadhouse Blues From The Albuam "Morrison Hotel" Lyrics by Jim Morrison Music by The Doors.

(This is as close as I believe you can get to playing the real deal at least it sounds 
way to me when I play it)

STANDARD TUNING
Moderately
G|---------------------------------------------------------|
D|--------------------7-8-9-----------------------7-9------|
A|-7--7--7--7----7-7---------7--7--7--7----7--7------------|
E|---------------------------------------------------------|


G|--------------------------------------------------------------------------|
D|---------------2-2-4------------------------------------------------------|
A|-0--0--3--4--------------2-2-2--2-2-2--2-2-2--2-2-2--2-2-2--3-3-3-3-2-----|
E|--------------------------------------------------------------------------|

G|-------------------9-7----------|
D|-----------------------9--------|
A|-7--7--7--7----7-7--------------|
E|--------------------------------|


ENDING
G|----------9--9--7-7--------------------------------------|
D|---------------------9---9-------------------------------|
A|-7--7---------------------------2---2--3--4--5--6--7---7-|
E|---------------------------------------------------------|

You should be able to figure out when exactly to play these

            
            
Suggest correction
Creating personal tab
Creating personal tab
You can edit any tab online and save it as your Personal.

You can edit, replace or remove any tab part or add personal notes – all changes will be seen only by you.

Personal tabs can be accessed anytime from any device, even offline.
Learn more »
comments
print report bad tab
1 comment total.
0 reply
blancmangefac 10 Sep 19, 2015 01:33 PM

yes, quite acceptable, it works fairly well. Can only be original of course if played on keyboard as no Bass existed on track, but that's not a criticism, good, handy Tab all the same.

guest
You may want to rate the tab now too:
select rating
Wanna post a correction for this tab? Suggest correction