Oops, an error
Loading. Please wait.

Roadhouse Blues Tab

version 8
version 8

Whole song

Interactive

Video

1,111 views 30 this week
4 commentsread comments
1 2 3 4 5
x 5
add to favorites
launch autoscroll
font size
0
reset
how to read this tab
guitar tuner
Autoscroll
slow
fast
+/-
esc
set tempo
stop
Help us to improve Ultimate-Guitar.com Take our survey!
×
Author
About this tab version
This is the official tab from the Doors. Was this info helpful? Yes No
Title: Roadhouse Blues
Artist: The Doors
Album: Morrison Hotel
Tempo = 120


[Intro]

    E7                                                   |—-3-—|
e|--------------------------------------------------------------|
B|--------------------------------------------------------------|
G|--------------------------------------------------------------|
D|--------------------------------------------------------------|
A|--------------------------------------------------------------|
E|--0--------0--------0--------0--------0--------0--------5h6h7-|


e|---------------------------|
B|---------------------------|
G|---------------------------|
D|---------------------------|
A|--------------------5/7----|
E|--0--0--0--0--0--0---------|

                                                         |—-3-—|
e|--------------------------------------------------------------|
B|--------------------------------------------------------------|
G|--------------------------------------------------------------|
D|--------------------------------------------------------------|
A|--------------------------------------------------------------|
E|--0--------0--------0--------0--------0--------0--------5h6h7-|

                                                         |—-3-—|
e|--------------------------------------------------------------|
B|--------------------------------------------------------------|
G|--------------------------------------------------------------|
D|--------------------------------------------------------------|
A|--------------------------------------------------------5h6h7-|
E|--0--------0--------0--------0--------0--------0--------------|


e|---------------------------|-------------------------|
B|---------------------------|-------------------------|
G|---------------------------|-------------------------|
D|---------------------------|-------------------------|
A|---------------------------|--------------------5/7--|
E|--0--0--0--0--0--0--2/4----|--0--0--0--0--0--0-------|

                                                         |—-3-—|
e|--------------------------------------------------------------|
B|--------------------------------------------------------------|
G|--------------------------------------------------------------|
D|--------------------------------------------------------------|
A|--------------------------------------------------------------|
E|--0--------0--------0--------0--------0--------0--------5h6h7-|


e|---------------------------|-------------------------|
B|---------------------------|-------------------------|
G|---------------------------|-------------------------|
D|---------------------------|-------------------------|
A|--------------------5/7----|--------------------5/7--|
E|--0--0--0--0--0--0---------|--0--0--0--0--0--0-------|


e|-------------------------|
B|-------------------------|
G|-------------------------|
D|-------------------------|
A|--------------------5/7--|
E|--0--0--0--0--0--0-------|

                                                         |—-3-—|
e|--------------------------------------------------------------|
B|--------------------------------------------------------------|
G|--------------------------------------------------------------|
D|--------------------------------------------------------------|
A|--------------------------------------------------------------|
E|--0--------0--------0--------0--------0--------0--------5h6h7-|


e|-------------------------|
B|-------------------------|
G|-------------------------|
D|-------------------------|
A|--------------------5/7--|
E|--0--0--0--0--0--0-------|


[Verse 1]

   E7
e|-------------------------|-------------------------|
B|-------------------------|-------------------------|
G|-------------------------|-------------------------|
D|-------------------------|-------------------------|
A|--------------------5/7--|--------------------5/7--|
E|--0--0--0--0--0--0-------|--0--0--0--0--0--0-------|

                                                         |—-3-—|
e|--------------------------------------------------------------|
B|--------------------------------------------------------------|
G|--------------------------------------------------------------|
D|--------------------------------------------------------0h1h2-|
A|--------------------------------------------------------------|
E|--0--------0--------0--------0--------0--------0--------------|

               |—-3-—|
e|----------------------------------------|
B|----------------------------------------|
G|--0-------------------------------------|
D|------2---0g2h0------0------------------|
A|------------------2------2--------------|
E-----------------------------------------|

                                                         |—-3-—|
e|--------------------------------------------------------------|
B|--------------------------------------------------------------|
G|--------------------------------------------------------------|
D|--------------------------------------------------------------|
A|--------------------------------------------------------------|
E|--0--------0--------0--------0--------0--------0--------5h6h7-|


e|-------------------------|
B|-------------------------|
G|-------------------------|
D|-------------------------|
A|--------------------5/7--|
E|--0--0--0--0--0--0-------|

                                                         |—-3-—|
e|--------------------------------------------------------------|
B|--------------------------------------------------------------|
G|--------------------------------------------------------------|
D|--------------------------------------------------------0h1h2-|
A|--------------------------------------------------------------|
E|--0--------0--------0--------0--------0--------0--------------|

            |—3-||—3-|
e|--------------------------|
B|--------------------------|
G|--0-----------------------|
D|--0--------2p0--2p0-----0-|
A|---------------------2----|
E|--------------------------|


e|-------------------------------------------------------------------------|
B|-------------------------------------------------------------------------|
G|-------------------------------------------------------------------------|
D|--0-----------------------0-----------------------0----------------0g2---|
A|--------------2-----------------------2-----------------------2----------|
E|-------------------------------------------------------------------------|


e|-----------------------|
B|-----------------------|
G|-----------------------|
D|---2--0--0------0------|
A|------------2----------|
E|-------------------3b--|

                    |—-3-—|
e|--------------------------|
B|--------------------------|
G|--------------------------|
D|--------------------------|
A|-------------------0h1h2--|
E|---------0--0-------------|

               |—-3-—|
e|----------------------------------------|
B|----------------------------------------|
G|--0-------------------------------------|
D|------2---0g2h0------0------------------|
A|------------------2------2--------------|
E-----------------------------------------|


e|----------------------------|
B|-----5>----5>---------------|
G|-----7>----7>---------------|
D|-----6>----6>---------------|
A|-----7>----7>-------5-------|
E|--0--------------0----------|
       .     .
                                                |—-3-—|
e|--------------------------------------------------------|
B|-----------5>----------------5>-------------------------|
G|-----------7>----------------7>-------------------------|
D|-----------6>----------------6>-------------------------|
A|-----------7>----------------7>-------------------------|
E|--0-----------------------------------0--------5h6h7----|
             .                 .

e|---------------------------|-----7>----7>-------------|
B|-----5>----5>--------------|-----5>----5>-------------|
G|-----7>----7>--------------|-----7>----7>-------------|
D|-----6>----6>--------------|-----6>----6>-------------|
A|-----7>----7>-------5/7----|--------------------5/7---|
E|--0--------------0---------|--0--------------0--------|
       .     .                     .     .  


[Verse 2]

   A7
e|-----7>----7>------------|-----7>----7>-------------|-----7>----7>---------------|
B|-----5>----5>------------|-----5>----5>-------------|-----5>----5>---------------|
G|-----7>----7>------------|-----7>----7>-------------|-----7>----7>---------------|
D|-----6>----6>------------|-----6>----6>-------------|-----6>----6>---------0-----|
A|------------------5/7----|--------------------5/7---|-----------------0h2-----2--|
E|--0------------0---------|--0--------------0--------|--0-------------------------|
       .     .                   .     .                    .     .  

               |—-3-—|
e|----------------------------------------|
B|----------------------------------------|
G|--0-------------------------------------|
D|--0---2---0g2h0------0------------------|
A|------------------2------2--------------|
E-----------------------------------------|


e|---------------------------|-----7>----7>-------------|
B|-----5>----5>--------------|-----5>----5>-------------|
G|-----7>----7>--------------|-----7>----7>-------------|
D|-----6>----6>--------------|-----6>----6>-------------|
A|-----7>----7>-------5------|--------------------5-----|
E|--0--------------0-----7---|--0--------------0--------|
       .     .                     .     .  

                 |—--3--—|
e|-----------------------------|
B|-----5>----5>----------------|
G|-----7>----7>----------------|
D|-----6>----6>----------------|
A|-----7>----7>-------0h1-0h2--|
E|--0--------------------------|
       .     .

             |-3-||—3-|
e|---------------------------|
B|---------------------------|
G|--0------------------------|
D|--0--------2-0h2p0----0----|
A|-------------------2-----2-|
E|---------------------------|


e|-------------------------------------------------------------------------|
B|-------------------------------------------------------------------------|
G|-------------------------------------------------------------------------|
D|--0-----------------------0-----------------------0----------------0g2---|
A|--------------2-----------------------2-----------------------2----------|
E|-------------------------------------------------------------------------|


e|-----------------------|
B|-----------------------|
G|-----------------------|
D|---2--0--0------0------|
A|------------2----------|
E|-------------------3b--|

                    |—-3-—|
e|--------------------------|
B|--------------------------|
G|--------------------------|
D|--------------------------|
A|-------------------0h1h2--|
E|-----0--0------0----------|


e|----------------------------------------|
B|----------------------------------------|
G|--0-------------------------------------|
D|------------2-----0g2-----------/14\----|
A|----------------------------------------|
E|----------------------------------------|


[Chorus]

    A7
e|----------------------------|
B|----------------------------|
G|----------------------------|
D|--------------2-----4--2----|
A|--0--0--3--4-----0----------|
E|----------------------------|


e|----------------------------|----------------------------|
B|----------------------------|----------------------------|
G|----------------------------|----------------------------|
D|--------------2-----4--2----|-----2--------2-----4--2----|
A|--0--0--3--4-----0----------|--------3--4-----0----------|
E|----------------------------|----------------------------|


e|----------------------------|----------------------------|
B|----------------------------|----------------------------|
G|----------------------------|----------------------------|
D|--------------2-----4--2----|--------------2-----4--2----|
A|--0--0--3--4-----0----------|--0--0--3--4-----0----------|
E|----------------------------|----------------------------|

                                 B
                                |—--3--—||—--3--—||—--3--—||—--3--—|
e|----------------------------|--7--7--7--7--7--7--7--7--7--7--7------|
B|----------------------------|--7--7--7--7--7--7--7--7--7--7--7------|
G|----------------------------|--8--8--8--8--8--8--8--8--8--8--8------|
D|--------------2-----4-------|--9--9--9--9--9--9--9--9--9--9--9------|
A|--0--0--3--4-----0----------|--9--9--9--9--9--9--9--9--9--9--9------|
E|----------------------------|--7--7--7--7--7--7--7--7--7--7--7------|
                      .

    C                       B
   |—-----3-------|
e|--8>----8>----8>----------7>------------------------------------|
B|--8>----8>----8>----------7>------------------------------------|
G|--9>----9>----9>----------8>------------------------------------|
D|--10>---10>---10>---------9>------------------------------------|
A|--10>---10>---10>---------9>------------------------------------|
E|--8>----8>----8>----------7>------------------------------------|
    .     .     .           .


[Guitar Solo]

    E7
   |—--3--—||—--3--—||—--3--—||—----3----|
e|--12-12-12-12-12-12-12-12-12------12-12-|
B|--12-12-12-12-12-12-12-12-12------12-12-|
G|-----------------------------14b16------|
D|----------------------------------------|
A|----------------------------------------|
E|----------------------------------------|

  |—----3-----||—---3----||—---3---—||—----3----|
e|-------12-12------12-12-----12-12-------12-12--|
B|-------12-12------12-12-----12-12-------12-12--|
G|--14b16------14b16------14b16------14b16-------|
D|-----------------------------------------------|
A|-----------------------------------------------|
E|-----------------------------------------------|

  |—------3------||—---3----||—------3------—||—----3----|
e|-------12-------12------12---------12---------12--------|
B|-------12-------12------12---------12---------12--------|
G|--14b16---14b16---14b16-----14b16-----14b16-----14b16-12|
D|--------------------------------------------------------|
A|--------------------------------------------------------|
E|--------------------------------------------------------|

   |--—---3------||—----3-----||—---3---—|
e|-------------------------------------------15b17--|
B|--------12-------12-15b17-15-------12-------------|
G|--14b16----14b16-------------14b16----------------|
D|---------------------------------------0----------|
A|--------------------------------------------------|
E|--------------------------------------------------|


e|--------15----12-------12-------12---------12----12----|
B|-----------------15b17---15b17-----15b17---------------|
G|-------------------------------------------------------|
D|-------------------------------------------------------|
A|-------------------------------------------------------|
E|-------------------------------------------------------|

   |-----3-----||—---3-----||—---3---—||—----3----—|
e|--------12-12-------12-12-------12-12-------------|
B|--15b17-------15b17-------15b17-------15b17-15-12-|
G|--------------------------------------------------|
D|--------------------------------------------------|
A|--------------------------------------------------|
E|--------------------------------------------------|

   |-----3-----||—---3-----||—---3---—||—--3--—|
e|------------------------------------------------|
B|--------12-12-------12-12------12-12------------|
G|--14b16-------14b16------14b16-------14-12------|
D|-------------------------------------------14---|
A|------------------------------------------------|
E|------------------------------------------------|

  |-----3-----|
e|------------------------------------------------0----|
B|--------------------------------------------0--------|
G|--12--0---0----14b16r14p12-----12------12------------|
D|---------------------------14-------14---------------|
A|-----------------------------------------------------|
E|-----------------------------------------------------|

  |—--3--—||—--3--—||—--3--—||—--3--—|
e|-------0--------0--------0--------0---|
B|--0h2------0h2------0h2------0h2------|
G|--------------------------------------|
D|--------------------------------------|
A|--------------------------------------|
E|--------------------------------------|

  |—--3--—||—--3--—||—--3--—||—--3--—|
e|-------0--------0--------0--------0---|
B|--0h2------0h2------0h2------0h2------|
G|--------------------------------------|
D|--------------------------------------|
A|--------------------------------------|
E|--------------------------------------|

  |—--3--—||—--3--—||—--3--—||—--3--—|
e|-------0--------0--------0--------0---|
B|--0h2------0h2------0h2------0h2------|
G|--------------------------------------|
D|--------------------------------------|
A|--------------------------------------|
E|--------------------------------------|

            |—--3--—||—--3--—|
e|--------0-------0--------0--------------|---------------------------|
B|--0g2-------0h2------0h2-----0----------|-----3---------------------|
G|---------------------------------2g4----|---------4g2-----0---------|
D|----------------------------------------|--------------------2------|
A|----------------------------------------|---------------------------|
E|----------------------------------------|---------------------------|
                                                               .

e|---------------------|---------------------------|---------------5b7---|
B|---------------------|-----3---------------------|---------------------|
G|---------------2g4---|---------4g2-----0---------|---------------------|
D|---------------------|--------------------2------|---------------------|
A|---------------------|---------------------------|---------------------|
E|---------------------|---------------------------|---------------------|
                                            .

         |—--3--—|
e|---------5p3--------------------------|--------------------------|
B|--------------5-----3-----------------|--------------------------|
G|------------------------0-------------|--------------------------|
D|-----------------------------0--------|-----2-----2----2p0-------|
A|--------------------------------------|---------------------2----|
E|--------------------------------------|--------------------------|
                                              .

[Bridge]

   E7
e|-----------------------|
B|-----------------------|
G|-----------------------|
D|-----2----2---2p0------|
A|------------------2----|
E|-----------------------|
       .

e|-----------------------|-----------------------|
B|-----------------------|-----------------------|
G|-----------------------|-----------------------|
D|-----2----2---2-0------|-----2----2---2p0------|
A|------------------2----|------------------2----|
E|-----------------------|-----------------------|
       .                       .

e|-----------------------|-----------------------|
B|-----------------------|-----------------------|
G|-----------------------|-----------------------|
D|-----2----2---2-0------|-----2----2---2p0------|
A|------------------2----|------------------2----|
E|-----------------------|-----------------------|
       .                       .

e|-----------------------|-----------------------|
B|-----------------------|-----------------------|
G|-----------------------|-----------------------|
D|-----2----2---2-0------|-----2----2---2p0------|
A|------------------2----|------------------2----|
E|-----------------------|-----------------------|
       .                       .

e|-----------------------|-----------------------|
B|-----------------------|-----------------------|
G|-----------------------|-----------------------|
D|-----2----2---2-0------|-----2----2---2p0------|
A|------------------2----|------------------2----|
E|-----------------------|-----------------------|
       .                       .

e|-----------------------|-----------------------|
B|-----------------------|-----------------------|
G|-----------------------|-----------------------|
D|-----2----2---2-0------|-----2----2---2p0------|
A|------------------2----|------------------2----|
E|-----------------------|-----------------------|
       .                       .

e|-----------------------|-----------------------|
B|-----------------------|-----------------------|
G|-----------------------|-----------------------|
D|-----2----2---2-0------|-----2----2---2p0------|
A|------------------2----|------------------2----|
E|-----------------------|-----------------------|
       .                       .

e|-----------------------|-----------------------|
B|-----------------------|-----------------------|
G|-----------------------|-----------------------|
D|-----2----2---2-0------|-----2----2---2p0------|
A|------------------2----|------------------2----|
E|-----------------------|-----------------------|
       .                       .

e|-----------------------|-----------------------|
B|-----------------------|-----------------------|
G|-----------------------|-----------------------|
D|-----2----2---2-0------|-----2----2---2p0------|
A|------------------2----|------------------2----|
E|-----------------------|-----------------------|
       .                       .

e|-----------------------|-----------------------|
B|-----------------------|-----------------------|
G|-----------------------|-----------------------|
D|-----2----2---2-0------|-----2----2---2p0------|
A|------------------2----|------------------2----|
E|-----------------------|-----------------------|
       .                       .

e|-----------------------|-----------------------|
B|-----------------------|-----------------------|
G|-----------------------|-----------------------|
D|-----2----2---2-0------|-----2----2---2p0------|
A|------------------2----|------------------2----|
E|-----------------------|-----------------------|
       .                       .

e|-----------------------|-----------------------|
B|-----------------------|-----------------------|
G|-----------------------|-----------------------|
D|-----2----2---2-0------|-----2----2---2p0------|
A|------------------2----|------------------2----|
E|-----------------------|-----------------------|
       .                       .

e|-----------------------|-----------------------|
B|-----------------------|-----------------------|
G|-----------------------|-----------------------|
D|-----2----2---2-0------|-----2----2---2p0------|
A|------------------2----|------------------2----|
E|-----------------------|-----------------------|
       .                       .

e|-----------------------|-----------------------|
B|-----------------------|-----------------------|
G|-----------------------|-----------------------|
D|-----2----2---2-0------|-----2----2---2p0------|
A|------------------2----|------------------2----|
E|-----------------------|-----------------------|
       .                       .

e|-----------------------|-----------------------|
B|-----------------------|-----------------------|
G|-----------------------|-----------------------|
D|-----2----2---2-0------|-----2----2---2p0------|
A|------------------2----|------------------2----|
E|-----------------------|-----------------------|
       .                       .


e|-----------------------|--------------------------|-----7>----7>-------------|
B|-----------------------|-----5>----5>-------------|-----5>----5>-------------|
G|-----------------------|-----7>----7>-----0-------|-----7>----7>-------------|
D|-----2----2---2-0------|-----6>----6>-----0-------|-----6>----6>-------------|
A|------------------2----|-----7>----7>-------------|--------------------5/7---|
E|-----------------------|--------------------------|--------------------------|
       .                       .     .                    .     . 


[Verse 3]

    A7
e|-----7>----7>------------|-----7>----7>-------------|-----7>----7>---------------|
B|-----5>----5>------------|-----5>----5>-------------|-----5>----5>---------------|
G|-----7>----7>------------|-----7>----7>-------------|-----7>----7>---------------|
D|-----6>----6>------------|-----6>----6>-------------|-----6>----6>---------0-----|
A|------------------5/7----|--------------------5/7---|-----------------0h2-----2--|
E|--0------------0---------|--0--------------0--------|--0-------------------------|
       .     .                   .     .                    .     .  

               |—-3-—|
e|----------------------------------------|
B|----------------------------------------|
G|--0-------------------------------------|
D|--0---2---0g2h0------0------------------|
A|------------------2------2--------------|
E-----------------------------------------|


e|---------------------------|-----7>----7>-------------|
B|-----5>----5>--------------|-----5>----5>-------------|
G|-----7>----7>--------------|-----7>----7>-------------|
D|-----6>----6>--------------|-----6>----6>-------------|
A|-----7>----7>-------5------|--------------------5-----|
E|--0--------------0-----7---|--0--------------0--------|
       .     .                     .     .  

                 |—--3--—|
e|-----------------------------|
B|-----5>----5>----------------|
G|-----7>----7>----------------|
D|-----6>----6>----------------|
A|-----7>----7>-------0h1-0h2--|
E|--0--------------------------|
       .     .

             |-3-||—3-|
e|---------------------------|
B|---------------------------|
G|--0------------------------|
D|--0--------2-0h2p0----0----|
A|-------------------2-----2-|
E|---------------------------|


e|-------------------------------------------------------------------------|
B|-------------------------------------------------------------------------|
G|-------------------------------------------------------------------------|
D|--0-----------------------0-----------------------0----------------0g2---|
A|--------------2-----------------------2-----------------------2----------|
E|-------------------------------------------------------------------------|


e|-----------------------|
B|-----------------------|
G|-----------------------|
D|---2--0--0------0------|
A|------------2----------|
E|-------------------3b--|

                    |—-3-—|
e|--------------------------|
B|--------------------------|
G|--------------------------|
D|--------------------------|
A|-------------------0h1h2--|
E|-----0--0------0----------|


e|----------------------------------------|
B|----------------------------------------|
G|--0-------------------------------------|
D|------------2-----0g2-----------/14\----|
A|----------------------------------------|
E|----------------------------------------|


[Chorus]

    A7
e|----------------------------|
B|----------------------------|
G|----------------------------|
D|--------------2-----4--2----|
A|--0--0--3--4-----0----------|
E|----------------------------|


e|----------------------------|----------------------------|
B|----------------------------|----------------------------|
G|----------------------------|----------------------------|
D|--------------2-----4--2----|-----2--------2-----4--2----|
A|--0--0--3--4-----0----------|--------3--4-----0----------|
E|----------------------------|----------------------------|


e|----------------------------|----------------------------|
B|----------------------------|----------------------------|
G|----------------------------|----------------------------|
D|--------------2-----4--2----|--------------2-----4--2----|
A|--0--0--3--4-----0----------|--0--0--3--4-----0----------|
E|----------------------------|----------------------------|

                                 B
                                |—--3--—||—--3--—||—--3--—||—--3--—|
e|----------------------------|--7--7--7--7--7--7--7--7--7--7--7--7---|
B|----------------------------|--7--7--7--7--7--7--7--7--7--7--7--7---|
G|----------------------------|--8--8--8--8--8--8--8--8--8--8--8--8---|
D|--------------2-----4-------|--9--9--9--9--9--9--9--9--9--9--9--9---|
A|--0--0--3--4-----0----------|--9--9--9--9--9--9--9--9--9--9--9--9---|
E|----------------------------|--7--7--7--7--7--7--7--7--7--7--7--7---|
                      .

              C    C#   D     D#      
   |—-----3-----—||—------3------—|
e|--7>---7----8----9----10----11---|
B|--7>---7----8----9----10----11---|
G|--8>---8----9----10---11----12---|
D|--9>---9----10---11---12----13---|
A|--9>---9----10---11---12----13---|
E|--7>---7----8----9----10----11---|
    .    .    .    .    .     .

  Guitar 1:  
    E
e|--12----------------------------------|------------------------||
B|--12----------------------------------|------------------------||
G|--13----------------------------------|------------------------||
D|--14----------------------------------|------------------------||
A|--14----------------------------------|------------------------||
E|--12----------------------------------|------------------------||
 |  .
 |
 |Guitar 2:
 |        |—--3--—|          |—--3--—|
e|--15b17--15p12------------------------|------------------------||
B|---------------15--12-----------------|---------9\7------------||
G|----------------------14b16r14-12-----|---------9\7------------||
D|----------------------------------14--|-12\--------------------||
A|--------------------------------------|------------------------||
E|--------------------------------------|------------------------||


************************************

| g     Grace note
| h     Hammer-on
| p     Pull-off
| r     Release
| b     Bend
| >     Accented note
| /     Slide up
| \     Slide down
| .     Staccato
| |-3-| Triplet

************************************
comments
print report bad tab
4 comments total. Showing first comments.
+1 reply
SFosterS 30 Sep 09, 2016 11:45 PM

Awesome tab! Thank you!

-2 reply
youdie2467 10 Sep 10, 2016 01:45 PM

i dunno who the hell is "The Doors" but that guys stolen these riff from Muse "Psycho"

0 reply
RegularSizeRudy 10 Sep 10, 2016 06:03 PM

Muse "Psycho" Released: 2015. ... The Doors "Roadhouse Blues" Released: 1970. If you persist on being clueless, please go back into the closet, and reinsert your head into your ass.

guest
You may want to rate the tab now too:
select rating