Oops, an error
Loading. Please wait.

Spy bass

version 2
version 2

Whole song

6,150 views 12 this week
1 commentread comment
1 2 3 4 5
x 6
add to favorites
×
Save as Personal and add changes to this tab that will be seen only by you. Learn more ›
×
You can save this tab as Personal to edit and correct it or add notes. All changes will be seen only by you. Learn more »
launch autoscroll
font size
0
reset
guitar tuner
edit
Autoscroll
slow
fast
+/-
esc
set tempo
stop
Author
----------------------------------------------------------------------------
			 The Spy - The Doors
----------------------------------------------------------------------------

Bass comes in at 0:11

 G|-------------|
 D|-----7h9-5h7-| x3
 A|-7-7---------|
 E|-------------|

 G|---9-7-----------|
 D|-------9-7h9-5h7-|
 A|-7---------------|
 E|-----------------|

 G|-------------|
 D|-----7h9-5h7-| x4
 A|-7-7---------|
 E|-------------|

 G|-----9-7-5-7-----9-7-----|
 D|-7-7---------7-7-----9-7-|
 A|-------------------------|
 E|-------------------------|

 G|-------------|
 D|-----7h9-5h7-| x6
 A|-7-7---------|
 E|-------------|

 G|-----------------2-0-----|
 D|-------------0-----------|
 A|-----5-5\2-2---2-----2/7-|
 E|-3-3---------------------|

 G|-------------|
 D|-----7h9-5h7-| x4
 A|-7-7---------|
 E|-------------|

 G|-----9-7-5-7-----9-7-----|
 D|-7-7---------7-7-----9-7-|
 A|-------------------------|
 E|-------------------------|

 G|-------------|
 D|-----7h9-5h7-| x6
 A|-7-7---------|
 E|-------------|

 G|-----------------2-0----|
 D|-------------0----------|
 A|-----5-5\2-2---2-----2/-|
 E|-3-3--------------------|

 G|-----------------2-0----|
 D|-------------0----------| x3
 A|-5-5-5-5\2-2---2-----2/-|
 E|------------------------|

 G|-----------------2-0-----|
 D|-------------0-----------| 
 A|-5-5-5-5\2-2---2-----2/7-|
 E|-------------------------|

 G|-------------|
 D|-----7h9-5h7-| x4
 A|-7-7---------|
 E|-------------|

 G|-----9-7-5-7-----9-7-----|
 D|-7-7---------7-7-----9-7-|
 A|-------------------------|
 E|-------------------------|

 G|-------------|
 D|-----7h9-5h7-| x6
 A|-7-7---------|
 E|-------------|

 G|-----------------2-0-----------------------|
 D|-------------0-------2-0-------------------| x2
 A|-----5-5\2-2---2---------2-0-2-------------|
 E|-3-3---------------------------0-0-0-2-2-2-|

 G|-----------|
 D|-----------| 
 A|-----5-5---|
 E|-3-3-----0-|

 G|-------------|
 D|-------------|
 A|-7-7-7-7-7-7-|
 E|-------------|

 G|-------------|
 D|-----7h9-5h7-| x5
 A|-7-7---------|
 E|-------------|

 G|---9-7-----------|
 D|-------9-7h9-5h7-|
 A|-7---------------|
 E|-----------------|

 G|-------------|
 D|-----7h9-5h7-| x3
 A|-7-7---------|
 E|-------------|

 G|---9-7-----------|
 D|-------9-7h9-5h7-|
 A|-7---------------|
 E|-----------------|

 G|-------------|
 D|-----7h9-5h7-| x4
 A|-7-7---------|
 E|-------------|

 G|-------2-|
 D|---0-----|
 A|-2---2---|
 E|---------|

============================================================================
| h  hammer-on        | /  slide up         | \  slide down
============================================================================

            
            
Suggest correction
Creating personal tab
Creating personal tab
You can edit any tab online and save it as your Personal.

You can edit, replace or remove any tab part or add personal notes – all changes will be seen only by you.

Personal tabs can be accessed anytime from any device, even offline.
Learn more »
comments
print report bad tab
1 comment total.
0 reply
Haitch 188 Apr 10, 2015 11:33 PM

Pretty damn accurate.
Only fix required is the Chorus where it goes to E.
All of the various Chorus riffs need this open E in there to sound right.

G|------------------------------2-0---------|
D|-------------------------0----------------|
A|-----------5----5\-----2---2-------2/7----|
E|-3----3------------0-------------------0--|

guest
You may want to rate the tab now too:
select rating
Wanna post a correction for this tab? Suggest correction