Oops, an error
Loading. Please wait.

The Soft Parade bass

version 2
version 2

Whole song

Interactive

28 views 6 this week
no commentswrite comment
1 2 3 4 5
3 more votes to show rating
add to favorites
×
Save as Personal and add changes to this tab that will be seen only by you. Learn more ›
×
You can save this tab as Personal to edit and correct it or add notes. All changes will be seen only by you. Learn more »
launch autoscroll
font size
0
reset
guitar tuner
edit
Autoscroll
slow
fast
+/-
esc
set tempo
stop
The Doors - The soft parade
from the homonymous album (1969)

From the moment I heard this song I wanted to learn to play this bassline.
I finally figured this out, and it's 98% accurate. There some notes imposible to hear.
Here it is, the soft parade by the doors, played by Harvey Brooks on the LP.

Tabbed by Leo Chiurco

(Bass starts at 1:31)

[Part 1] Trippy part
G|---------------------------------|---------------------------------|
D|-5-----6.----7---8-----7.----6---|-5.--5---6---7---8-----7.----6---|
A|---------------------------------|---------------------------------|
D|---------------------------------|---------------------------------|
   1 + + + 2 + + + 3 + + + 4 + + +   1 + + + 2 + + + 3 + + + 4 + + +

G|---------------------------------|---------------------------------|
D|-5.--5---6---7---8-----7.--------|-6-----x-----------------6-------|
A|-----------------------------6h7-|---------6-----x-----6-----------|
D|---------------------------------|-----------------4---------------|
   1 + + + 2 + + + 3 + + + 4 + + +   1 + + + 2 + + + 3 + + + 4 + + +

G|---------------------------------|---------------------------------|
D|-5-----6.------7-8.--8---7---6---|-5-----6.------7-8---8---7---6---|
A|---------------------------------|---------------------------------|
D|---------------------------------|---------------------------------|
   1 + + + 2 + + + 3 + + + 4 + + +   1 + + + 2 + + + 3 + + + 4 + + +

G|---------------------------------|---------------------------------|
D|-5.--5---6---7---8---8---7.------|-6-----6---------6---------------|
A|-----------------------------6---|---------6-------x-------6-------|
D|---------------------------------|-----------------4-------6-------|
   1 + + + 2 + + + 3 + + + 4 + + +   1 + + + 2 + + + 3 + + + 4 + + +

G|---------------------------------|---------------------------------|
D|-5-----6.----7.------8---7---6---|-x---5---6---7---8---8---7.--6---|
A|---------------------------------|---------------------------------|
D|---------------------------------|---------------------------------|
   1 + + + 2 + + + 3 + + + 4 + + +   1 + + + 2 + + + 3 + + + 4 + + +

G|---------------------------------|---------------------------------|
D|-5.--5---6---7---8---8---7.------|-6-----x-------------------------|
A|-----------------------------6---|---------6-----x-----------------|
D|---------------------------------|-----------------4-----4-4---5---|
   1 + + + 2 + + + 3 + + + 4 + + +   1 + + + 2 + + + 3 + + + 4 + + +

G|---------------------------------|---------------------------------|
D|---------------------------------|-----------1-----3---3-----------|
A|---------4---4---6---6---4-------|--------/4---------------6---4---|
D|-6---6-----------------------6---|-4---4---------------------------|
   1 + + + 2 + + + 3 + + + 4 + + +   1 + + + 2 + + + 3 + + + 4 + + +

G|---------------------------------|---------------------------------|
D|-4.--4---3-----------------------|-4---5---6---7---8.--7.--7.--6---|
A|-------------6---4.--4---3---4---|---------------------------------|
D|---------------------------------|---------------------------------|
   1 + + + 2 + + + 3 + + + 4 + + +   1 + + + 2 + + + 3 + + + 4 + + +

G|---------------------------------|---------------------------------|
D|-5-----6.----7---8.--8---7---6---|-5.--5---6---7---8.--8---7---6---|
A|---------------------------------|---------------------------------|
D|---------------------------------|---------------------------------|
   1 + + + 2 + + + 3 + + + 4 + + +   1 + + + 2 + + + 3 + + + 4 + + +

G|---------------------------------|---------------------------------|
D|-5.--5---6---7---8.--8---7---6---|-5.--5---6---7---8.--8-----------|
A|---------------------------------|-------------------------6-------|
D|---------------------------------|---------------------------------|
   1 + + + 2 + + + 3 + + + 4 + + +   1 + + + 2 + + + 3 + + + 4 + + +

G|---------------------------------|
D|-6-------------------------------|
A|-------x-6-----------------------|
D|---------------x-4---------------|
   1 + + + 2 + + + 3 + + + 4 + + + 

G|---------------------------------|---------------------------------|
D|-5---5---6---7---8.--8---7---6---|-5.--5---6---7---8.--8---7---6---|
A|---------------------------------|---------------------------------|
D|---------------------------------|---------------------------------|
   1 + + + 2 + + + 3 + + + 4 + + +   1 + + + 2 + + + 3 + + + 4 + + +

G|---------------------------------|---------------------------------|
D|-5.--5---6---7---8.--8---7---5---|-5.--5---6---7---8.--------------|
A|---------------------------------|---------------------------------|
D|---------------------------------|---------------------------------|
   1 + + + 2 + + + 3 + + + 4 + + +   1 + + + 2 + + + 3 + + + 4 + + +

[Part 2] "His wife gets home" (starts when Jim says GET)
G|-------------------------7-------|---------------------------------|
D|-------------7---8---10------8---|---------------------------------|
A|---------10----------------------|---------------------------------|
D|-----8---------------------------|-8-----------8---10----------10--|
   1 + + + 2 + + + 3 + + + 4 + + +   1 + + + 2 + + + 3 + + + 4 + + +

G|---------------------------------|-----------------10----------10--|
D|-----------------------------7-9-|-10----------10------------------|
A|-7-----------7---8-10------------|---------------------------------|
D|---------------------------------|---------------------------------|
   1 + + + 2 + + + 3 + + + 4 + + +   1 + + + 2 + + + 3 + + + 4 + + +

G|-9-----------9---7---------------|---------------------------------|
D|-------------------10----7-------|---------------------------------|
A|-----------------------------10--|---------------------------------|
D|---------------------------------|-8-----------8---10----------10--|
   1 + + + 2 + + + 3 + + + 4 + + +   1 + + + 2 + + + 3 + + + 4 + + +

G|---------------------------------|-------------7-9-10----------10--|
D|-----------------------------7-9-|-10------------------------------|
A|-7-----------7---8-10------------|---------------------------------|
D|---------------------------------|---------------------------------|
   1 + + + 2 + + + 3 + + + 4 + + +   1 + + + 2 + + + 3 + + + 4 + + +

G|-9-----------9---7---------------|---------------------------------|
D|-------------------10--7---------|---------------------------------|
A|-------------------------10--7---|---------------------------------|
D|-------------------------------10|-8-----------8---10----------10--|
   1 + + + 2 + + + 3 + + + 4 + + +   1 + + + 2 + + + 3 + + + 4 + + +

G|---------------------------------|---------------------------------|
D|-----------------------------7-9-|-10----------10------------------|
A|-7-----------7---8-10------------|-----------------8-----------8---|
D|---------------------------------|---------------------------------|
   1 + + + 2 + + + 3 + + + 4 + + +   1 + + + 2 + + + 3 + + + 4 + + +

G|---------------------------------|---------------------------------|
D|---------------------------------|---------------------------------|
A|-7-----------7-------------------|---------------------------------|
D|-----------------10----------10--|-8-----------8---10----------10--|
   1 + + + 2 + + + 3 + + + 4 + + +   1 + + + 2 + + + 3 + + + 4 + + +

G|---------------------------------|-----------------10--------------|
D|-----------------------------7-9-|-10------------------------------|
A|-7-----------7---8-10------------|---------------------------------|
D|---------------------------------|---------------------------------|
   1 + + + 2 + + + 3 + + + 4 + + +   1 + + + 2 + + + 3 + + + 4 + + +

G|-9---------------7---------------|---------------------------------|
D|-------------------10--7---------|---------------------------------|
A|-------------------------10--7---|---------------------------------|
D|-------------------------------10|-8-----------8---10----------10--|
   1 + + + 2 + + + 3 + + + 4 + + +   1 + + + 2 + + + 3 + + + 4 + + +

G|---------------------------------|-------------7-9-10----------10--|
D|-----------------------------7-9-|-10------------------------------|
A|-7-----------7---8-10------------|---------------------------------|
D|---------------------------------|---------------------------------|
   1 + + + 2 + + + 3 + + + 4 + + +   1 + + + 2 + + + 3 + + + 4 + + +

G|-9-----------9---7---------------|---------------------------------|
D|-------------------10--7---------|---------------------------------|
A|-------------------------10--7---|---------------------------------|
D|-------------------------------10|-8---------------10--------------|
   1 + + + 2 + + + 3 + + + 4 + + +   1 + + + 2 + + + 3 + + + 4 + + +

[Part 3] The best part of the trip!
G|---------------------------------|---------------------------------|
D|---------------------------------|---------------------------------|
A|-7-----------7---------------7---|-------------7-7h10--7-----------|
D|-----7---10----------7---10------|-----7---10--------------10--7---|
   1 + + + 2 + + + 3 + + + 4 + + +   1 + + + 2 + + + 3 + + + 4 + + +

G|---------------------------------|---------------------------------|
D|---------------------------------|-------------------------7-------|
A|-7-----------7---------------7---|-------------7-7h10--7-------10--|
D|-----7---10----------7---10------|-----7---10----------------------|
   1 + + + 2 + + + 3 + + + 4 + + +   1 + + + 2 + + + 3 + + + 4 + + +

G|---------------------------------|---------------------------------|
D|---------------------------------|-------------------------7-------|
A|-7-----------7---7-----------7---|-7-----------7-7h10--7-------10--|
D|-----7---10----------7---10------|-----7---10----------------------|
   1 + + + 2 + + + 3 + + + 4 + + +   1 + + + 2 + + + 3 + + + 4 + + +

G|---------------------------------|---------------------------------|
D|---------------------------------|---------------------------------|
A|-7-----------7---------------7---|------------7-7h10--7------------|
D|-----7---10----------7---10------|-----7---10--------------10-7-10-|
   1 + + + 2 + + + 3 + + + 4 + + +   1 + + + 2 + + + 3 + + + 4 + + +

G|---------------------------------|---------------------------------|
D|---------------------------------|-------------------------7-------|
A|-7-----------7---------------7---|-7-----------7-7h10--7-------10--|
D|-----7---10----------7---10------|-----7---10----------------------|
   1 + + + 2 + + + 3 + + + 4 + + +   1 + + + 2 + + + 3 + + + 4 + + +

G|---------------------------------|---------------------------------|
D|---------------------------------|---------------------------------|
A|-7-----------7---------------7---|-7----------7-7h10--7------------|
D|-----7---10----------7---10------|-----7---10--------------10-7-10-|
   1 + + + 2 + + + 3 + + + 4 + + +   1 + + + 2 + + + 3 + + + 4 + + +

G|---------------------------------|---------------------------------|
D|---------------------------------|---------------------------------|
A|-7-----------7---7-------7---7---|---------7--7------7-----7h10p7--|
D|-----7---10----------10----------|-----10-------7h10---------------|
   1 + + + 2 + + + 3 + + + 4 + + +   1 + + + 2 + + + 3 + + + 4 + + +

G|---------------------------------|---------------------------------|
D|---------------------------------|-------------------------7-7-----|
A|-7-----------7---7-----------7---|-7-----------7-7h10--7-------10--|
D|-----7---10----------7---10------|-----7---10----------------------|
   1 + + + 2 + + + 3 + + + 4 + + +   1 + + + 2 + + + 3 + + + 4 + + +

G|---------------------------------|---------------------------------|
D|---------------------------------|---------------------------------|
A|-7-----------7---------------7---|-7----------7-7h10--7------------|
D|-----7---10----------7---10------|-----7---10--------------10-7-10-|
   1 + + + 2 + + + 3 + + + 4 + + +   1 + + + 2 + + + 3 + + + 4 + + +

G|---------------------------------|---------------------------------|
D|---------------------------------|-------------------------7-7-----|
A|-7-----------7---7-----------7---|-7-----------7-7h10--7-------10--|
D|-----7---10----------7---10------|-----7---10----------------------|
   1 + + + 2 + + + 3 + + + 4 + + +   1 + + + 2 + + + 3 + + + 4 + + +

G|---------------------------------|---------------------------------|
D|---------------------------------|---------------------------------|
A|-7-----------7---7-----------7---|-7----------7-7h10--7------------|
D|-----7---10----------7---10------|-----7---10--------------10-7-10-|
   1 + + + 2 + + + 3 + + + 4 + + +   1 + + + 2 + + + 3 + + + 4 + + +

G|---------------------------------|---------------------------------|
D|---------------------------------|-------------------------7-7-----|
A|-7-----------7---7-----------7---|-7-----------7-7h10--7-------10--|
D|-----7---10----------7---10------|-----7---10----------------------|
   1 + + + 2 + + + 3 + + + 4 + + +   1 + + + 2 + + + 3 + + + 4 + + +

[Part 4] Proud to be a part of this number!
G|---------------------------------|---------------------------------|
D|-------------9---9---------------|-------------9---9---------------|
A|-7---------------------------7---|-7-------------------------------|
D|---------------------------------|---------------------------------|
   1 + + + 2 + + + 3 + + + 4 + + +   1 + + + 2 + + + 3 + + + 4 + + +

G|---------------------------------|---------------------------------|
D|-------------9---9---------------|-------------9---------------9---|
A|-7---------------------------7---|-7---------------7---9---10------|
D|---------------------------------|---------------------------------|
   1 + + + 2 + + + 3 + + + 4 + + +   1 + + + 2 + + + 3 + + + 4 + + +

G|---------------------------------|-----------------9---9-----------|
D|-7---------------7---7-----------|-------------9---------------9---|
A|-------------7-----------10------|-7-------------------------------|
D|---------------------------------|---------------------------------|
   1 + + + 2 + + + 3 + + + 4 + + +   1 + + + 2 + + + 3 + + + 4 + + +

G|---------------------------------|---------------------------------|
D|-------------9---------------9---|-------------9---------------9---|
A|-7---------------7---7-----------|-7---------------7---9---10------|
D|---------------------------------|---------------------------------|
   1 + + + 2 + + + 3 + + + 4 + + +   1 + + + 2 + + + 3 + + + 4 + + +

G|---------------------------------|---------------------------------|
D|-7---------------7---7-----------|-------------9---------------9---|
A|-------------7-----------10------|-7---------------7---9---10------|
D|---------------------------------|---------------------------------|
   1 + + + 2 + + + 3 + + + 4 + + +   1 + + + 2 + + + 3 + + + 4 + + +

G|---------------------------------|---------------------------------|
D|-7---------------7---7-----------|---------------------------------|
A|-------------7-----------10------|-7---------------7---7---5-7-5---|
D|---------------------------------|-------------7-------------------|
   1 + + + 2 + + + 3 + + + 4 + + +   1 + + + 2 + + + 3 + + + 4 + + +

G|---------------------------------|---------------------------------|
D|-----------------9---9-----------|-----------------------------9---|
A|-------------9-----------9-------|-7---------------7-9-----10------|
D|-7-------------------------------|-------------7-------------------|
   1 + + + 2 + + + 3 + + + 4 + + +   1 + + + 2 + + + 3 + + + 4 + + +

G|---------------------------------|---------------------------------|
D|-7-------------------7---5-7-5---|---------------------------------|
A|-------------7-------------------|-7---------------7---7---5-7-5---|
D|---------------------------------|-------------7-------------------|
   1 + + + 2 + + + 3 + + + 4 + + +   1 + + + 2 + + + 3 + + + 4 + + +

G|---------------------------------|-----------------9---------------|
D|-----------------9---9-----------|-------------9---------------9---|
A|-------------9-----------9-------|-7-------------------7---10------|
D|-7-------------------------------|---------------------------------|
   1 + + + 2 + + + 3 + + + 4 + + +   1 + + + 2 + + + 3 + + + 4 + + +

G|---------------------------------|---------------------------------|
D|-7---------------7---7-----------|---------------------------------|
A|-------------7-----------10------|-7---------------7---7---5-7-5---|
D|---------------------------------|-------------7-------------------|
   1 + + + 2 + + + 3 + + + 4 + + +   1 + + + 2 + + + 3 + + + 4 + + +

G|---------------------------------|-------------------------9-------|
D|-----------------9---9-----------|---------------------9-------9---|
A|-------------9-----------9-------|-7---------------7---------------|
D|-7-------------------------------|-------------7-------------------|
   1 + + + 2 + + + 3 + + + 4 + + +   1 + + + 2 + + + 3 + + + 4 + + +

[Back to main riff of this part]
G|---------------------------------|-----------------9~------9~------|
D|-------------9---9---------------|-------------9-----9-9-----9-9---|
A|-7---------------------------7---|-7-------------------------------|
D|---------------------------------|---------------------------------|
   1 + + + 2 + + + 3 + + + 4 + + +   1 + + + 2 + + + 3 + + + 4 + + +

G|---------------------------------|-----------------7---8---9-------|
D|-------------9---9---------------|-------------9-------------------|
A|-7---------------------------7---|-7---------------------------7---|
D|---------------------------------|---------------------------------|
   1 + + + 2 + + + 3 + + + 4 + + +   1 + + + 2 + + + 3 + + + 4 + + +

G|-----------------9.--9-----------|---------9-----------------------|
D|-------------9---------------9---|-----9-----------9.------9.------|
A|-7-------------------------------|-7-----------------7-------7-----|
D|---------------------------------|---------------------------------|
   1 + + + 2 + + + 3 + + + 4 + + +   1 + + + 2 + + + 3 + + + 4 + + +

G|---------------------------------|---------------------------------|
D|-------------9---9---------------|---------------------------------|
A|-7---------------------------7---|-7-------5---7---.-------5---7---|
D|---------------------------------|-----7---------------7-----------|
   1 + + + 2 + + + 3 + + + 4 + + +   1 + + + 2 + + + 3 + + + 4 + + +

G|---------------------------------|-----------------12\11---9-------|
D|-------------9---9---------------|-------------9-------------------|
A|-7---------------------------7---|-7-------------------------------|
D|---------------------------------|---------------------------------|
   1 + + + 2 + + + 3 + + + 4 + + +   1 + + + 2 + + + 3 + + + 4 + + +

G|---------------------------------|---------------------------------|
D|-------------9---9---------------|-------------9---9---------------|
A|-7---------------------------7---|-7-------------------------------|
D|---------------------------------|---------------------7-----------|
   1 + + + 2 + + + 3 + + + 4 + + +   1 + + + 2 + + + 3 + + + 4 + + +

G|---------------------------------|---------------------------------|
D|-------------9---9---------------|-------------9---------------9---|
A|-7---------------------------7---|-7---------------7---9---10------|
D|---------------------------------|---------------------------------|
   1 + + + 2 + + + 3 + + + 4 + + +   1 + + + 2 + + + 3 + + + 4 + + +

G|---------------------------------|---------------------------------|
D|-7---------------7---7-----------|-------------------------7-/-9---|
A|-------------7-----------10------|-7---------------7---7-----------|
D|---------------------------------|-------------7-------------------|
   1 + + + 2 + + + 3 + + + 4 + + +   1 + + + 2 + + + 3 + + + 4 + + +

G|---------------------------------|---------------------------------|
D|-------------9---9---------------|-------------9---------------9---|
A|-7---------------------------7---|-7---------------7-9-----10------|
D|---------------------------------|---------------------------------|
   1 + + + 2 + + + 3 + + + 4 + + +   1 + + + 2 + + + 3 + + + 4 + + +

G|---------------------------------|---------------------------------|
D|-7---------------7.--7---5---7---|-9-------------------------------|
A|-------------7-------------------|---------------------------------|
D|---------------------------------|---------------------------------|
   1 + + + 2 + + + 3 + + + 4 + + +   1 + + + 2 + + + 3 + + + 4 + + +

"Right, yeah!"
G|---------------------------------|---------------------------------|
D|-------------9---9---------------|-------------9-------------------|
A|-7---------------------------7---|-7-------------------------------|
D|---------------------------------|-----------------4-5---6---6-7---|
   1 + + + 2 + + + 3 + + + 4 + + +   1 + + + 2 + + + 3 + + + 4 + + +

G|---------------------------------|-----------------9---------------|
D|-------------9---9---------------|-------------9-------9-------9---|
A|-7---------------------------7---|-7-----------------------7-------|
D|---------------------------------|---------------------------------|
   1 + + + 2 + + + 3 + + + 4 + + +   1 + + + 2 + + + 3 + + + 4 + + +

G|---------------------------------|-----------------7---8---9-------|
D|-7---------------7.--7-----------|-------------9-------------------|
A|-------------7-----------10------|-7---------------------------7---|
D|---------------------------------|---------------------------------|
   1 + + + 2 + + + 3 + + + 4 + + +   1 + + + 2 + + + 3 + + + 4 + + +

G|-------------------------9-------|---------------------------------|
D|---------------------9-------9---|-------------9---------------9---|
A|-7---7---7-----------------------|-7---------------7---9---10------|
D|---------------------------------|---------------------------------|
   1 + + + 2 + + + 3 + + + 4 + + +   1 + + + 2 + + + 3 + + + 4 + + +

G|---------------------------------|---------------------------------|
D|-7---------------7-------8-------|-9.------------------------------|
A|-------------7-------------------|---------------------------------|
D|---------------------------------|---------------------------------|
   1 + + + 2 + + + 3 + + + 4 + + +   1 + + + 2 + + + 3 + + + 4 + + +

"Night, yeah!" and back to part 3
[Part 3 with licks]
G|---------------------------------|---------------------------------|
D|---------------------------------|---------------------------------|
A|-7-----------7---7-----------7---|-7-----------7-7h10--7-----------|
D|-----7---10----------7---10------|-----7---10--------------10--7---|
   1 + + + 2 + + + 3 + + + 4 + + +   1 + + + 2 + + + 3 + + + 4 + + +

G|---------------------------------|---------------------------------|
D|---------------------------------|---------------------------------|
A|-7-----------7---7-----------7---|-7-----------7---7-7-------------|
D|-----7---10----------7---10------|-----7---10-----------10-10--7---|
   1 + + + 2 + + + 3 + + + 4 + + +   1 + + + 2 + + + 3 + + + 4 + + +

G|---------------------------------|---------------------------------|
D|---------------------------------|-------------------------7-------|
A|-7-----------7---7-----------7---|-7-----------7-7h10--7-------10--|
D|-----7---10----------7---10------|-----7---10----------------------|
   1 + + + 2 + + + 3 + + + 4 + + +   1 + + + 2 + + + 3 + + + 4 + + +

G|---------------------------------|---------------------------------|
D|---------------------------------|---------------------------------|
A|-7-----------7---7-----------7---|-7----------7-7h10--7------------|
D|-----7---10----------7---10------|-----7---10--------------10-7-10-|
   1 + + + 2 + + + 3 + + + 4 + + +   1 + + + 2 + + + 3 + + + 4 + + +

G|---------------------------------|---------------------------------|
D|---------------------------------|---------------------------------|
A|-7-----------7---7-----------7---|-7-----------7---7-7-------------|
D|-----7---10----------7---10------|-----7---10------------10--10-7--|
   1 + + + 2 + + + 3 + + + 4 + + +   1 + + + 2 + + + 3 + + + 4 + + +

G|---------------------------------|---------------------------------|
D|---------------------------------|---------------------------------|
A|-7-----------7---7-----------7---|-7-----------7-7h10--7-----------|
D|-----7---10----------7---10------|-----7---10--------------10--7---|
   1 + + + 2 + + + 3 + + + 4 + + +   1 + + + 2 + + + 3 + + + 4 + + +

G|---------------------------------|---------------------------------|
D|---------------------------------|-------------------------7-------|
A|-7-----------7---7-----------7---|-7-----------7-7h10--7-------10--|
D|-----7---10----------7---10------|-----7---10----------------------|
   1 + + + 2 + + + 3 + + + 4 + + +   1 + + + 2 + + + 3 + + + 4 + + +

G|---------------------------------|---------------------------------|
D|---------------------------------|---------------------7-7-7-7-----|
A|-7-----------7---7-----------7---|-7-----------7-7h10.---------10--|
D|-----7---10----------7---10------|-----7---10----------------------|
   1 + + + 2 + + + 3 + + + 4 + + +   1 + + + 2 + + + 3 + + + 4 + + +

G|---------------------------------|---------------------------------|
D|---------------------------------|---------------------------------|
A|-7-----------7---7-----------7---|-7----------7-7h10--7------------|
D|-----7---10----------7---10------|-----7---10--------------10-7-10-|
   1 + + + 2 + + + 3 + + + 4 + + +   1 + + + 2 + + + 3 + + + 4 + + +

G|---------------------------------|---------------------------------|
D|---------------------------------|---------------------7-7-7-7-7-7-|
A|-7-----------7---7-----------7---|-7-----------7-7h10.-------------|
D|-----7---10----------7---10------|-----7---10----------------------|
   1 + + + 2 + + + 3 + + + 4 + + +   1 + + + 2 + + + 3 + + + 4 + + +

G|---------------------------------|---------------------------------|
D|---------------------------------|---------------------------------|
A|-7-----------7---7-----------7---|-7-----------7-7h10--7-----------|
D|-----7---10----------7---10------|-----7---10--------------10--7---|
   1 + + + 2 + + + 3 + + + 4 + + +   1 + + + 2 + + + 3 + + + 4 + + +

G|---------------------------------|---------------------------------|
D|---------------------------------|--------------------7---/10------|
A|-7-----------7---7-----------7---|-7----------7-7h10-----------10--|
D|-----7---10----------7---10------|-----7---10----------------------|
   1 + + + 2 + + + 3 + + + 4 + + +   1 + + + 2 + + + 3 + + + 4 + + +

[Outro] (Chords here)
G|---------------------------------|---------------------------------|
D|---------------------------------|-----------------12--11--10--9---|
A|-7-----------7---------------7---|------------7----10--9---8---7---| (x6)
D|-----7---10----------7---10------|-----7---10----------------------|
   1 + + + 2 + + + 3 + + + 4 + + +   1 + + + 2 + + + 3 + + + 4 + + +

G|---------------------------------|---------------------------------|
D|---------------------------------|-------------------12------11----|
A|-7-----------7---------------7---|------------7----10-10-9-9---9-8-| (x2)
D|-----7---10----------7---10------|-----7---10----------------------|
   1 + + + 2 + + + 3 + + + 4 + + +   1 + + + 2 + + + 3 + + + 4 + + +

G|---------------------------------|---------------------------------|
D|---------------------------------|---------------------------------|
A|-7-----------7---------------7---|-7----------7----7-----------7---|
D|-----7---10----------7---10------|-----7---10----------7---10------|
   1 + + + 2 + + + 3 + + + 4 + + +   1 + + + 2 + + + 3 + + + 4 + + +

G|---------------------------------|---------------------------------|
D|---------------------------------|-------------------7-7-----------|
A|-7-----------7---------------7---|-----7-------7-----------10------|
D|-----7---10----------7---10------|---10-10-10------------------7---|
   1 + + + 2 + + + 3 + + + 4 + + +   1 + + + 2 + + + 3 + + + 4 + + +

G|---------------------------------|---------------------------------|
D|---------------------------------|---------------------------------|
A|-7-----------7---7-----------7---|-------------7-7h10--7-----------|
D|-----7---10----------7---10------|-----7---10--------------10--7---|
   1 + + + 2 + + + 3 + + + 4 + + +   1 + + + 2 + + + 3 + + + 4 + + +

G|---------------------------------|---------------------------------|
D|---------------------------------|---------------------------------|
A|-7-----------7---------------7---|-7-----------7-7h10--7-----------|
D|-----7---10----------7---10------|-----7---10--------------10--7---|
   1 + + + 2 + + + 3 + + + 4 + + +   1 + + + 2 + + + 3 + + + 4 + + +

G|---------------------------------|---------------------------------|
D|---------------------------------|-------------------------7-------|
A|-7-----------7---7-----------7---|-7-----------7-7h10--7-------10--|
D|-----7---10----------7---10------|-----7---10----------------------|
   1 + + + 2 + + + 3 + + + 4 + + +   1 + + + 2 + + + 3 + + + 4 + + +

G|---------------------------------|---------------------------------|
D|---------------------------------|-------------------12------11----|
A|-7-----------7---------------7---|------------7----10-10-9-9---9-8-|
D|-----7---10----------7---10------|-----7---10----------------------|
   1 + + + 2 + + + 3 + + + 4 + + +   1 + + + 2 + + + 3 + + + 4 + + +

G|---------------------------------|---------------------------------|
D|---------------------------------|---------------------------------|
A|-7-----------7---------------7---|-7-----------7-7h10--7-----------|
D|-----7---10----------7---10------|-----7---10--------------10--7---|
   1 + + + 2 + + + 3 + + + 4 + + +   1 + + + 2 + + + 3 + + + 4 + + +

G|---------------------------------|---------------------------------|
D|---------------------------------|-------------------------7-------|
A|-7-----------7---7-----------7---|-7-----------7-7h10--7-------10--|
D|-----7---10----------7---10------|-----7---10----------------------|
   1 + + + 2 + + + 3 + + + 4 + + +   1 + + + 2 + + + 3 + + + 4 + + +

G|---------------------------------|---------------------------------|
D|---------------------------------|---------------------7-7-7-7-7-7-|
A|-7-----------7---7-----------7---|-7-----------7-7h10.-------------|
D|-----7---10----------7---10------|-----7---10----------------------|
   1 + + + 2 + + + 3 + + + 4 + + +   1 + + + 2 + + + 3 + + + 4 + + +

"When all else fails ..."

G|---------------------------------|---------------------------------|
D|---------------------------------|---------------------------------|
A|-7-----------7---------------7---|-7-----------7-7h10--7-----------|
D|-----7---10----------7---10------|-----7---10--------------10--7---|
   1 + + + 2 + + + 3 + + + 4 + + +   1 + + + 2 + + + 3 + + + 4 + + +

G|---------------------------------|---------------------------------|
D|---------------------------------|---------------------7-7-7-7-7-7-|
A|-7-----------7---7-----------7---|-7-----------7-7h10.-------------|
D|-----7---10----------7---10------|-----7---10----------------------|
   1 + + + 2 + + + 3 + + + 4 + + +   1 + + + 2 + + + 3 + + + 4 + + +

G|---------------------------------|---------------------------------|
D|---------------------------------|---------------------7-7.--7-7-7-|
A|-7-----------7---7-----------7---|-7-----------7-7h10.-------------|
D|-----7---10----------7---10------|-----7---10----------------------|
   1 + + + 2 + + + 3 + + + 4 + + +   1 + + + 2 + + + 3 + + + 4 + + +

G|---------------------------------|---------------------------------|
D|---------------------------------|---------------------------------|
A|-7-----------7---------------7---|-7-----------7-7h10--7-----------| (fade)
D|-----7---10----------7---10------|-----7---10--------------10--7---|
   1 + + + 2 + + + 3 + + + 4 + + +   1 + + + 2 + + + 3 + + + 4 + + +

G|---------9-------7-------9-------|-7-------------------------------|
D|-----9-------9-------9-------9---|---------------------------------|
A|-7-------------------------------|---------------------------------|
D|---------------------------------|---------------------------------|
   1 + + + 2 + + + 3 + + + 4 + + +   1 + + + 2 + + + 3 + + + 4 + + +


***********************************
| .  End note
| X  Dead note
| \  Slide down
| /  Slide up
| h  Hammer on
| P  Pull off

***********************************
Suggest correction
Creating personal tab
Creating personal tab
You can edit any tab online and save it as your Personal.

You can edit, replace or remove any tab part or add personal notes – all changes will be seen only by you.

Personal tabs can be accessed anytime from any device, even offline.
Learn more »
Give kudos to tab author, rate the tab!
1 2 3 4 5
comments
print report bad tab
guest
You may want to rate the tab now too:
select rating
Wanna post a correction for this tab? Suggest correction