Oops, an error
Loading. Please wait.

The Wasp Bass

version 1
version 1

Whole song

Interactive

2,595 views 3 this week
2 commentsread comments
1 2 3 4 5
x 4
add to favorites
launch autoscroll
font size
0
reset
guitar tuner
×
Best way to learn
"The Wasp"
Autoscroll
slow
fast
+/-
esc
set tempo
stop
The Wasp (Texas Radio and the Big Beat) - Doors
  
  main riff        chorus
G|---------------|---------------------------------------------------------------------|
D|---------------|---------56-------------067----------55--55--555054330765------------|
A|------057------|077557755-------07755775----077557755--77--77------------7-057-------|
E|0-0-0----0-0-0-|-----------0-0-0----------------------------------------------0-0-0--|

Suggest correction
comments
print report bad tab
2 comments total.
0 reply
Combat Rocker 10 Apr 12, 2013 06:10 PM

The main chorus sounds ok, but the rest doesn't sound right for some reason.

CR

0 reply
Haitch 188 Sep 14, 2016 02:18 AM

Its like this...

The Wasp (Texas Radio and the Big Beat) - The Doors - Bass

Verse 1: (x24)
G|----------------|------------------|
D|----------------|o----------------o|
A|------------5-7-|o------------5-7-o|
E|---------/7-----|-0---0---0-7------|


Chorus 1:
G|----------------|----------------|----------------|----------------|
D|----------------|----------------|----------------|----------------|
A|---/4\-----/4\--|----------------|---/4\-----/4\--|--0-1-2---------|
E|0-------0-----0-|2-3-3---3---3---|0-------0-------|----------------|

G|----------------|----------------|----------------|----------------|
D|----------------|----------------|----442-4-2-----|----------------|
A|---/4\-----/4\--|----------------|------------4---|------------5-7-|
E|0-------0-------|4---0---4---0---|2---------------|4-3-2-0--/7-----|

Verse 2: (x12)
G|------------------|
D|o----------------o|
A|o------------5-7-o|
E|-0---0---0-7------|

Chorus 2:
G|----------------|----------------|----------------|----------------|
D|----------------|----------------|----------------|----------------|
A|---/4\-----/4\--|----------------|---/4\-----/4\--|----------------|
E|0-------0-----0-|2-3-3---3---3---|0-------0-------|--5-6-7---------|

G|----------------|----------------|----------------|----------------|
D|----------------|----------------|----442-4-2-----|------------5-7-|
A|---/4\-----/4\--|----------------|------------4---|---------/7-----|
E|0-------0-------|4---0---4---0---|2---------------|4-3-2-0---------|


Verse 3: (x7)
G|-------------------|
D|o-------------5-7-o|
A|o-0---0---0-7-----o|
E|-------------------|

Guitar Solo/Interlude:
G|----------------|----------------|----------------|----------------|
D|-----------7p5--|5-7--------7p5--|5-7-------------|7---7p5---57----|
A|0---0---0-7---7-|----0---0-7---7-|----0---0---0-5-|--5----7-7--0---|
E|----------------|----------------|----------------|----------------|

G|-----------------|----------------|------------------|----------------|
D|---------7p5-7---|------------7-5-|-------------7p5--|7---------------|
A|0---0---7---7----|0---0---0-7-----|0---0---0---7---5-|----0---0---0---|
E|-----------------|----------------|------------------|----------------|

G|----------------|----------------|-----------------|----------------|
D|----7-7-5-5---5-|----7-7-5-5--57-|----7p5--5---5-7-|7p5-5-5-7p5-5-7-|
A|0-----------7---|0-----------7---|0------7---------|---7-7-----7----|
E|----------------|----------------|-----------------|----------------|

G|----------------|----------------|----------------|----------------|
D|----7-7-5---5---|----7-7-5---5---|----7p5-5---5---|----------------|
A|0---------------|0---------------|0------7------7-|0---0---0---0---|
E|--------------7-|--------------7-|----------------|----------------|

G|666-5-6---------|----------------|666-5-6---------|----------------|
D|--------5-6-----|/4--4-2-4-2-----|--------5-6-----|--4-5-6vvv------|
A|----------------|------------4---|----------------|----------------|
E|----------------|----------------|----------------|----------------|

G|666-5-6---------|----------------|----------------|----------------|
D|--------666-5-6-|----------------|2h4-4-2-4-2-----|----------------|
A|----------------|777-6-7-3-4-----|------------4-2-|4p2-2-4-----5-7-|
E|----------------|----------------|----------------|---4-----/7-----|

Verse 4/Keys Solo:
(x28)
G|------------------|----------------|----------------|----------------|
D|o----------------o|----------------|7p5-------------|----------------|
A|o------------5-7-o|7p5-7p5-7p5-7p5-|---77p5-7p5-7p5-|----------------|
E|-0---0---0-7------|---7---7---7---7|-------7---7---7|0---------------|

G|----------------|----------------|----------------|
D|----------------|----------------|----------------|
A|----------------|----------------|----------------|
E|----------------|0---------------|----------------|

Chorus 3/Coda:
G|----------------|----------------|----------------|----------------|
D|----------------|----------------|----------------|----------------|
A|---/4\-----/4\--|----------------|---/4\-----/4\--|----------------|
E|0-------0-----0-|2-3-3---3---3---|0-------0-------|--5-6-7---------|

G|----------------|----------------|----------------|---------------||
D|----------------|----------------|4-4-442-4-2-----|---------------||
A|---/4\-----/4\--|----------------|------------4---|---------------||
E|0-------0-------|4---0---4---0---|----------------|4-3-2-0--------||

guest
You may want to rate the tab now too:
select rating
Wanna post a correction for this tab? Suggest correction