Oops, an error
Loading. Please wait.

The Wasp tab

version 1
version 1

Whole song

Interactive

9,545 views 18 this week
no commentswrite comment
1 2 3 4 5
x 5
add to favorites
×
Save as Personal and add changes to this tab that will be seen only by you. Learn more ›
×
You can save this tab as Personal to edit and correct it or add notes. All changes will be seen only by you. Learn more »
launch autoscroll
font size
0
reset
how to read this tab
guitar tuner
edit
Autoscroll
slow
fast
+/-
esc
set tempo
stop
Author
Difficulty
Tabbers playing skills
intermediate
advanced
                      The WASP  Texas radio                                


                                                                The Doors
 Electric Guitar



               |--3--|  |--3--|               |--3--|  |--3--|   
     Q    Q    E  E  E  E  E  E     Q    Q    E  E  E  E  E  E   
E||------------------------------|------------------------------|
B||------------------------------|------------------------------|
G||------------------9--7-----9--|--x----x----x-----9--7-----9--|
D||------------------9--7-----9--|--x----x----x-----9--7-----9--|
A||------------------7--5-----7--|--x----x----x-----7--5-----7--|
E||------------------------------|------------------------------|


                                 Bass intro                         
            |--3--|  |--3--|                     |--3--|  |--3--|   
  Q    Q    E  E  E  E  E  E     Q          Q    E  E  E  E  E  E   
------------------------------|------------------------------------|
------------------------------|------------------------------------|
--x----x----x-----9--7-----9--|--x----------x----x-----9--7-----9--|
--x----x----x-----9--7-----9--|--x----------x----x-----9--7-----9--|
--x----x----x-----7--5-----7--|--x----------x----x-----7--5-----7--|
------------------------------|------------------------------------|


                                 Vocals intro                         
            |--3--|  |--3--|                       |--3--|  |--3--|   
  Q    Q    E  E  E  E  E  E     Q            Q    E  E  E  E  E  E   
------------------------------|--------------------------------------|
------------------------------|--------------------------------------|
--x----x----x-----9--7-----9--|--x------------x----x-----x--7-----9--|
--x----x----x-----9--7-----9--|--x------------x----x-----x--7-----9--|
--x----x----x-----7--5-----7--|--x------------x----x-----x--5-----7--|
------------------------------|--------------------------------------|


            |--3--|  |--3--|               |--3--|  |--3--|   
  Q    Q    E  E  E  E  E  E     Q    Q    E  E  E  E  E  E   
------------------------------|------------------------------|
------------------------------|------------------------------|
--x----x----x-----x--7-----9--|--x----x----x-----x--7-----9--|
--x----x----x-----x--7-----9--|--x----x----x-----x--7-----9--|
--x----x----x-----x--5-----7--|--x----x----x-----x--5-----7--|
------------------------------|------------------------------|


            |--3--|  |--3--|               |--3--|  |--3--|   
  Q    Q    E  E  E  E  E  E     Q    Q    E  E  E  E  E  E   
------------------------------|------------------------------|
------------------------------|------------------------------|
--x----x----x-----x--7-----9--|--x----x----x-----x--7-----9--|
--x----x----x-----x--7-----9--|--x----x----x-----x--7-----9--|
--x----x----x-----x--5-----7--|--x----x----x-----x--5-----7--|
------------------------------|------------------------------|


            |--3--|  |--3--|               |--3--|  |--3--|   
  Q    Q    E  E  E  E  E  E     Q    Q    E  E  E  E  E  E   
------------------------------|------------------------------|
------------------------------|------------------------------|
--x----x----x-----x--7-----9--|--x----x----x-----x--7-----9--|
--x----x----x-----x--7-----9--|--x----x----x-----x--7-----9--|
--x----x----x-----x--5-----7--|--x----x----x-----x--5-----7--|
------------------------------|------------------------------|


            |--3--|  |--3--|               |--3--|  |--3--|   
  Q    Q    E  E  E  E  E  E     Q    Q    E  E  E  E  E  E   
------------------------------|------------------------------|
------------------------------|------------------------------|
--x----x----x-----x--7-----9--|--x----x----x-----x--7-----9--|
--x----x----x-----x--7-----9--|--x----x----x-----x--7-----9--|
--x----x----x-----x--5-----7--|--x----x----x-----x--5-----7--|
------------------------------|------------------------------|


            |--3--|  |--3--|               |--3--|  |--3--|   
  Q    Q    E  E  E  E  E  E     Q    Q    E  E  E  E  E  E   
------------------------------|------------------------------|
------------------------------|------------------------------|
--x----x----x-----x--7-----9--|--x----x----x-----x--7-----9--|
--x----x----x-----x--7-----9--|--x----x----x-----x--7-----9--|
--x----x----x-----x--5-----7--|--x----x----x-----x--5-----7--|
------------------------------|------------------------------|


            |--3--|  |--3--|               |--3--|  |--3--|   
  Q    Q    E  E  E  E  E  E     Q    Q    E  E  E  E  E  E   
------------------------------|------------------------------|
------------------------------|------------------------------|
--x----x----x-----x--7-----9--|--x----x----x-----x--7-----9--|
--x----x----x-----x--7-----9--|--x----x----x-----x--7-----9--|
--x----x----x-----x--5-----7--|--x----x----x-----x--5-----7--|
------------------------------|------------------------------|


            |--3--|  |--3--|               |--3--|  |--3--|   
  Q    Q    E  E  E  E  E  E     Q    Q    E  E  E  E  E  E   
------------------------------|------------------------------|
------------------------------|------------------------------|
--x----x----x-----x--7-----9--|--x----x----x-----x--7-----9--|
--x----x----x-----x--7-----9--|--x----x----x-----x--7-----9--|
--x----x----x-----x--5-----7--|--x----x----x-----x--5-----7--|
------------------------------|------------------------------|


            |--3--|  |--3--|               |--3--|  |--3--|   
  Q    Q    E  E  E  E  E  E     Q    Q    E  E  E  E  E  E   
------------------------------|------------------------------|
------------------------------|------------------------------|
--x----x----x-----x--7-----9--|--x----x----x-----x--7-----9--|
--x----x----x-----x--7-----9--|--x----x----x-----x--7-----9--|
--x----x----x-----x--5-----7--|--x----x----x-----x--5-----7--|
------------------------------|------------------------------|


            |--3--|  |--3--|               |--3--|  |--3--|   
  Q    Q    E  E  E  E  E  E     Q    Q    E  E  E  E  E  E   
------------------------------|------------------------------|
------------------------------|------------------------------|
--x----x----x-----x--7-----9--|--x----x----x-----x--7-----9--|
--x----x----x-----x--7-----9--|--x----x----x-----x--7-----9--|
--x----x----x-----x--5-----7--|--x----x----x-----x--5-----7--|
------------------------------|------------------------------|


            |--3--|  |--3--|               |--3--|  |--3--|   
  Q    Q    E  E  E  E  E  E     Q    Q    E  E  E  E  E  E   
------------------------------|------------------------------|
------------------------------|------------------------------|
--x----x----x-----x--7-----9--|--x----x----x-----x--7-----9--|
--x----x----x-----x--7-----9--|--x----x----x-----x--7-----9--|
--x----x----x-----x--5-----7--|--x----x----x-----x--5-----7--|
------------------------------|------------------------------|


            |--3--|  |--3--|               |--3--|  |--3--|   
  Q    Q    E  E  E  E  E  E     Q    Q    E  E  E  E  E  E   
------------------------------|------------------------------|
------------------------------|------------------------------|
--x----x----x-----x--7-----9--|--x----x----x-----x--7-----9--|
--x----x----x-----x--7-----9--|--x----x----x-----x--7-----9--|
--x----x----x-----x--5-----7--|--x----x----x-----x--5-----7--|
------------------------------|------------------------------|


                                 E        A6                          
            |--3--|  |--3--|     |--3--|  |--3--|  |--3--|  |--3--|   
  Q    Q    E  E  E  E  E  E     E  E  E  E  E  E  E  E  E  E  E  E   
------------------------------|--0--0--0--2-----2--0--0--0--2-----2--|
------------------------------|--0--0--0--2-----2--0--0--0--2-----2--|
--x----x----x-----x--7-----9--|--1--1--1--2-----2--1--1--1--2-----2--|
--x----x----x-----x--7-----9--|--2--2--2-----------2--2--2-----------|
--x----x----x-----x--5-----7--|--------------------------------------|
------------------------------|--------------------------------------|


  |--3--|                    |--3--|  |--3--|  |--3--|  |--3--|   
  E  E  E  Q    Q    Q       E  E  E  E  E  E  E  E  E  E  E  E   
--2-----3-----------------|--0--0--0--2-----2--0--0--0--2-----2--|
--2-----3-----------------|--0--0--0--2-----2--0--0--0--2-----2--|
--2-----3-----------------|--1--1--1--2-----2--1--1--1--2-----2--|
--------------------------|--2--2--2-----------2--2--2-----------|
--------------------------|--------------------------------------|
--------------------------|--------------------------------------|


        A  A#    B                                                     
  |--3--|  |--3--|                |--3--|  |--3--|  |--3--|  |--3--|   
  E  E  E  E  E  E  E  E  Q       E  E  E  E  E  E  E  E  E  E  E  E   
-------------------------------|--0--0--0--2-----2--0--0--0--2-----2--|
--------2--3-----4--L----------|--0--0--0--2-----2--0--0--0--2-----2--|
--------2--3-----4--L----------|--1--1--1--2-----2--1--1--1--2-----2--|
--------2--3-----4--L----------|--2--2--2-----------2--2--2-----------|
--------0--1-----2--L----------|--------------------------------------|
-------------------------------|--------------------------------------|


  C#m                                     F#m                            
  |---3--|  |--3--|  |--3--|  |--3--|     |---3--|  |--3--|              
  E   E  E  E  E  E  E  E  E  E  E  E     E   E  E  E  E  E  Q    E  E   
--4---4--4-----------4--4--4-----------|--2---2--2--2--2--2--2----2--2--|
--5---5--5--5-----5--5--5--5--5-----5--|--2---2--2--2--2--2--2----2--2--|
--6---6--6--6-----6--6--6--6--6-----6--|--2---2--2--2--2--2--2----2--2--|
--6---6--6--6-----6--6--6--6--6-----6--|--4---4--4--4--4--4--4----4--4--|
---------------------------------------|--4---4--4--4--4--4--4----4--4--|
---------------------------------------|--2---2--2--2--2--2--2----2--2--|


  G#m Gm                                                  
                                       |--3--|  |--3--|   
  E   E  E  E  E  E  Q       Q    Q    E  E  E  E  E  E   
--4---3--2--0--L----------|------------------------------|
--4---3--2--0--L----------|------------------------------|
--4---3--2--1--L----------|--x----x----x-----x--7-----9--|
--6---5--4--2--L----------|--x----x----x-----x--7-----9--|
--6---5--4--2--L----------|--x----x----x-----x--5-----7--|
--4---3--2--0--L----------|------------------------------|


            |--3--|  |--3--|               |--3--|  |--3--|   
  Q    Q    E  E  E  E  E  E     Q    Q    E  E  E  E  E  E   
------------------------------|------------------------------|
------------------------------|------------------------------|
--x----x----x-----x--7-----9--|--x----x----x-----x--7-----9--|
--x----x----x-----x--7-----9--|--x----x----x-----x--7-----9--|
--x----x----x-----x--5-----7--|--x----x----x-----x--5-----7--|
------------------------------|------------------------------|


            |--3--|  |--3--|               |--3--|  |--3--|   
  Q    Q    E  E  E  E  E  E     Q    Q    E  E  E  E  E  E   
------------------------------|------------------------------|
------------------------------|------------------------------|
--x----x----x-----x--7-----9--|--x----x----x-----x--7-----9--|
--x----x----x-----x--7-----9--|--x----x----x-----x--7-----9--|
--x----x----x-----x--5-----7--|--x----x----x-----x--5-----7--|
------------------------------|------------------------------|


            |--3--|  |--3--|               |--3--|  |--3--|   
  Q    Q    E  E  E  E  E  E     Q    Q    E  E  E  E  E  E   
------------------------------|------------------------------|
------------------------------|------------------------------|
--x----x----x-----x--7-----9--|--x----x----x-----x--7-----9--|
--x----x----x-----x--7-----9--|--x----x----x-----x--7-----9--|
--x----x----x-----x--5-----7--|--x----x----x-----x--5-----7--|
------------------------------|------------------------------|


            |--3--|  |--3--|               |--3--|  |--3--|   
  Q    Q    E  E  E  E  E  E     Q    Q    E  E  E  E  E  E   
------------------------------|------------------------------|
------------------------------|------------------------------|
--x----x----x-----x--7-----9--|--x----x----x-----x--7-----9--|
--x----x----x-----x--7-----9--|--x----x----x-----x--7-----9--|
--x----x----x-----x--5-----7--|--x----x----x-----x--5-----7--|
------------------------------|------------------------------|


            |--3--|  |--3--|               |--3--|  |--3--|   
  Q    Q    E  E  E  E  E  E     Q    Q    E  E  E  E  E  E   
------------------------------|------------------------------|
------------------------------|------------------------------|
--x----x----x-----x--7-----9--|--x----x----x-----x--7-----9--|
--x----x----x-----x--7-----9--|--x----x----x-----x--7-----9--|
--x----x----x-----x--5-----7--|--x----x----x-----x--5-----7--|
------------------------------|------------------------------|


            |--3--|  |--3--|     |--3--|  |--3--|  |--3--|  |--3--|   
  Q    Q    E  E  E  E  E  E     E  E  E  E  E  E  E  E  E  E  E  E   
------------------------------|--0--0--0--2-----2--0--0--0--2-----2--|
------------------------------|--0--0--0--2-----2--0--0--0--2-----2--|
--x----x----x-----x--7-----9--|--1--1--1--2-----2--1--1--1--2-----2--|
--x----x----x-----x--7-----9--|--2--2--2-----------2--2--2-----------|
--x----x----x-----x--5-----7--|--------------------------------------|
------------------------------|--------------------------------------|


  |--3--|                    |--3--|  |--3--|  |--3--|  |--3--|   
  E  E  E  Q    Q    Q       E  E  E  E  E  E  E  E  E  E  E  E   
--2-----3-----------------|--0--0--0--2-----2--0--0--0--2-----2--|
--2-----3-----------------|--0--0--0--2-----2--0--0--0--2-----2--|
--2-----3-----------------|--1--1--1--2-----2--1--1--1--2-----2--|
--------------------------|--2--2--2-----------2--2--2-----------|
--------------------------|--------------------------------------|
--------------------------|--------------------------------------|


  |--3--|  |--3--|                |--3--|  |--3--|  |--3--|  |--3--|   
  E  E  E  E  E  E  E  E  Q       E  E  E  E  E  E  E  E  E  E  E  E   
-------------------------------|--0--0--0--2-----2--0--0--0--2-----2--|
--------2--3-----4--L----------|--0--0--0--2-----2--0--0--0--2-----2--|
--------2--3-----4--L----------|--1--1--1--2-----2--1--1--1--2-----2--|
--------2--3-----4--L----------|--2--2--2-----------2--2--2-----------|
--------0--1-----2--L----------|--------------------------------------|
-------------------------------|--------------------------------------|


                                         F#m                            
  |--3--|  |--3--|  |--3--|  |--3--|     |---3--|  |--3--|              
  E  E  E  E  E  E  E  E  E  E  E  E     E   E  E  E  E  E  Q    E  E   
--4--4--4-----------4--4--4-----------|--2---2--2--2--2--2--2----2--2--|
--5--5--5--5-----5--5--5--5--5-----5--|--2---2--2--2--2--2--2----2--2--|
--6--6--6--6-----6--6--6--6--6-----6--|--2---2--2--2--2--2--2----2--2--|
--6--6--6--6-----6--6--6--6--6-----6--|--4---4--4--4--4--4--4----4--4--|
--------------------------------------|--4---4--4--4--4--4--4----4--4--|
--------------------------------------|--2---2--2--2--2--2--2----2--2--|


                                      |--3--|  |--3--|   
  E  E  E  E  E  E  Q       Q    Q    E  E  E  E  E  E   
--4--3--2--0--L----------|---------------------3-----5--|
--4--3--2--0--L----------|---------------------3-----5--|
--4--3--2--1--L----------|--x----x----x--------4-----6--|
--6--5--4--2--L----------|--x----x----x--------5-----7--|
--6--5--4--2--L----------|--x----x----x-----------------|
--4--3--2--0--L----------|------------------------------|


            |--3--|  |--3--|               |--3--|  |--3--|   
  Q    Q    E  E  E  E  E  E     Q    Q    E  E  E  E  E  E   
---------------------3-----5--|---------------------3-----5--|
---------------------3-----5--|---------------------3-----5--|
--x----x----x--------4-----6--|--x----x----x--------4-----6--|
--x----x----x--------5-----7--|--x----x----x--------5-----7--|
--x----x----x-----------------|--x----x----x-----------------|
------------------------------|------------------------------|


            |--3--|  |--3--|               |--3--|  |--3--|   
  Q    Q    E  E  E  E  E  E     Q    Q    E  E  E  E  E  E   
---------------------3-----5--|------------------------------|
---------------------3-----5--|------------------------------|
--x----x----x--------4-----6--|--x----x----x-----------------|
--x----x----x--------5-----7--|--x----x----x-----------------|
--x----x----x-----------------|--x----x----x-----------------|
------------------------------|------------------5--8--5--8--|


  |--3--|  |--3--|  |--3--|  |--3--|     |--3--|  |--3--|  |--3--|  |--3--|   
  E  E  E  E  E  E  E  E  E  E  E  E     E  E  E  E  E  E  E  E  E  E  E  E   
--------------------------------------|--------------------------------------|
--------------------------------------|--------------------5-----5--8--5--8--|
--------------------------------------|--5-----5--7--5--7-----7--------------|
--------------------5-----5--7--5--7--|-----7--------------------------------|
--5-----5--7--5--7-----7--------------|--------------------------------------|
-----8--------------------------------|--------------------------------------|


  |--3--|          |--3--|  |--3--|     |--3--|  |--3--|  |--3--|  |---3--|   
  E  E  E   E   E  E  E  E  E  E  E     E  E  E  E  E  E  E  E  E  E   E  E   
--5-----5--/8--/8--L-----5--L-----5--|--L-----8--L-----5-----------5---------|
-----8----------------------8--------|--------------------8--5-----8b--L--8--|
-------------------------------------|--------------------------7------------|
-------------------------------------|---------------------------------------|
-------------------------------------|---------------------------------------|
-------------------------------------|---------------------------------------|


  |--3--|  |--3--|  |--3--|            |--3--|  |--3--|  |---3--|          
  E  E  E  E  E  E  E  E  E   Q        E  E  E  E  E  E  E  E   E    Q     
-----------------------------------|--------------------------------------|
--5--------5-----8--5-----8b--L----|--10--8-----8--------8-----10b---L----|
--------7--------------------------|---------9--------9-------------------|
-----------------------------------|--------------------------------------|
-----------------------------------|--------------------------------------|
-----------------------------------|--------------------------------------|


   |--3--|  |--3--|  |---3--|     |--3--|   
   E  E  E  E  E  E  E  E   E     E  E  E   
-------------------------------------------|
--10--8-----8--------8-----10br---L--8-----|
---------9--------9---------------------9--|
-------------------------------------------|
-------------------------------------------|
-------------------------------------------|


  |--3--|    |--3--|  |--3--|          
  E  E  E    E  E  E  E  E  E    Q     
-----------/10-----8--------8h--10----|
--8-----------------------------------|
--------9-----------------------------|
--------------------------------------|
--------------------------------------|
--------------------------------------|


   |---3--|  |---3--|   |---3---|     |---3---|   
   E  E   E  E  E   E   E   E   E     E   E   E   
--10--8------8-----------------------------------|
---------10------------13--15--15br---L--13------|
-------------------14------------------------14--|
-------------------------------------------------|
-------------------------------------------------|
-------------------------------------------------|


   |---3--|   |---3---|   |---3---|   |---3---|   
   E  E   E   E   E   E   E   E   E   E  E    E   
-------------------------------------------------|
--13---------13---L------13---L------13-----/15--|
---------14----------14----------14--------------|
-------------------------------------------------|
-------------------------------------------------|
-------------------------------------------------|


   |---3---|   |---3---|   |----3---|   |----3---|   
   E  E    E   E   E   E   E    E   E   E    E   E   
----------------------------------------------------|
--15-----/17--17---L--17--17s--15--15--15s--13--13--|
----------------------------------------------------|
----------------------------------------------------|
----------------------------------------------------|
----------------------------------------------------|


   |---3--|   |---3--|   |----3---|   |---3---|   
   E  E   E   E  E   E   E    E   E   E   E   E   
-------------------------------------------------|
--13---------13----------------------------------|
---------14---------14--14b---L--14--14--12------|
---------------------------------------------14--|
-------------------------------------------------|
-------------------------------------------------|


   |---3--|   |---3--|   |----3---|    |---3---|   
   E  E   E   E  E   E   E    E   E    E   E   E   
--------------------------------------------------|
--------------------------------------------------|
--12---------12-----14--14b---L--14b--14--12------|
---------14-----------------------------------14--|
--------------------------------------------------|
--------------------------------------------------|


   |---3--|   |---3--|   |----3---|   |---3---|   
   E  E   E   E  E   E   E    E   E   E   E   E   
-------------------------------------------------|
---------------------------------12--------------|
--12---------12-----14--14b---L------14--12------|
---------14----------------------------------14--|
-------------------------------------------------|
-------------------------------------------------|


   |----3---|   |---3---|   |----3---|          
   E    E   E   E   E   E   E    E   E   Q      
-----------------------------------------------|
-----------12----------------------------------|
--14b---L------14--12------14b---L---L--14b----|
-----------------------14----------------------|
-----------------------------------------------|
-----------------------------------------------|


              |--3--|  |--3--|     |--3--|            |--3--|   
   Q     Q    E  E  E  E  E  E     E  E  E  Q    Q    E  E  E   
--------------9--9--9--8-----9--|------------------------------|
--------------------------------|--8-----9-------9----7--------|
--14b---------------------------|---------------------------9--|
--------------------------------|------------------------------|
--------------------------------|------------------------------|
--------------------------------|------------------------------|


  |--3--|       |--3--|  |--3--|     |--3--|       |---3--|   |---3--|   
  E  E  E  Q    E  E  E  E  E  E     E  E  E  Q    E  E   E   E  E   E   
----------------9--9--9--8-----9--|-------------------------------------|
--7-------------------------------|--8-----9--L-------------------------|
--------9--6----------------------|----------------------11--12-----13--|
----------------------------------|----------------------11--12-----13--|
----------------------------------|-----------------------9--10-----11--|
----------------------------------|-------------------------------------|


             |--3--|  |--3--|     |--3--|  |--3--|  |--3--|  |--3--|   
   Q    Q    E  E  E  E  E  E     E  E  E  E  E  E  E  E  E  E  E  E   
-------------9--9--9--8-----9--|--------------------------------------|
-------------------------------|--9--9--9--8-----9--------------------|
---L---------------------------|--------------------9--9--9--8-----9--|
-------------------------------|--------------------------------------|
---L---------------------------|--------------------------------------|
-------------------------------|--------------------------------------|


   |---3--|             |--3--|      |--3--|   |--3--|   |---3--|  |---3--|   
   E  E   E  Q    Q     E  E  E      E  E  E   E  E  E   E  E   E  E  E   E   
---------------------------------|-------------------------------------------|
------------------9--------------|-------------------------------------------|
-----------------------11-----9--|--11-----9---------------------------------|
--10-----11----------------------|------------11-----9--11--9------9-----11--|
---------------------------------|-----------------------------11------------|
---------------------------------|-------------------------------------------|


              |--3--|  |--3--|   
   Q     Q    E  E  E  E  E  E   
--------------------------------|
--------------------------------|
--------------------9--7-----9--|
---L-----L----------9--7-----9--|
--------------------7--5-----7--|
--------------------------------|


    ORGAN solo                        
                                            |--3--|  |--3--|   
    Q                                  Q    E  E  E  E  E  E   
|-------------------------------------------------------------|
|-------------------------------------------------------------|
|*--x----------------------------------x----x-----x--7-----9--|
|*--x----------------------------------x----x-----x--7-----9--|
|---x----------------------------------x----x-----x--5-----7--|
|-------------------------------------------------------------|


            |--3--|  |--3--|               |--3--|  |--3--|   
  Q    Q    E  E  E  E  E  E     Q    Q    E  E  E  E  E  E   
------------------------------|------------------------------|
------------------------------|------------------------------|
--x----x----x-----x--7-----9--|--x----x----x-----x--7-----9--|
--x----x----x-----x--7-----9--|--x----x----x-----x--7-----9--|
--x----x----x-----x--5-----7--|--x----x----x-----x--5-----7--|
------------------------------|------------------------------|


            |--3--|  |--3--|               |--3--|  |--3--|   
  Q    Q    E  E  E  E  E  E     Q    Q    E  E  E  E  E  E   
------------------------------|------------------------------|
------------------------------|------------------------------|
--x----x----x-----x--7-----9--|--x----x----x-----x--7-----9--|
--x----x----x-----x--7-----9--|--x----x----x-----x--7-----9--|
--x----x----x-----x--5-----7--|--x----x----x-----x--5-----7--|
------------------------------|------------------------------|


            |--3--|  |--3--|               |--3--|  |--3--|   
  Q    Q    E  E  E  E  E  E     Q    Q    E  E  E  E  E  E   
------------------------------|------------------------------|
------------------------------|------------------------------|
--x----x----x-----x--7-----9--|--x----x----x-----x--7-----9--|
--x----x----x-----x--7-----9--|--x----x----x-----x--7-----9--|
--x----x----x-----x--5-----7--|--x----x----x-----x--5-----7--|
------------------------------|------------------------------|


            |--3--|  |--3--|               |--3--|  |--3--|     
  Q    Q    E  E  E  E  E  E     Q    Q    E  E  E  E  E  E   3x
------------------------------|-------------------------------||
------------------------------|-------------------------------||
--x----x----x-----x--7-----9--|--x----x----x-----x--7-----9--*||
--x----x----x-----x--7-----9--|--x----x----x-----x--7-----9--*||
--x----x----x-----x--5-----7--|--x----x----x-----x--5-----7---||
------------------------------|-------------------------------||


  |--3--|  |--3--|  |--3--|  |--3--|     |--3--|                  
  E  E  E  E  E  E  E  E  E  E  E  E     E  E  E  Q    Q    Q     
--0--0--0--2-----2--0--0--0--2-----2--|--2-----3-----------------|
--0--0--0--2-----2--0--0--0--2-----2--|--2-----3-----------------|
--1--1--1--2-----2--1--1--1--2-----2--|--2-----3-----------------|
--2--2--2-----------2--2--2-----------|--------------------------|
--------------------------------------|--------------------------|
--------------------------------------|--------------------------|


  |--3--|  |--3--|  |--3--|  |--3--|     |--3--|  |--3--|              
  E  E  E  E  E  E  E  E  E  E  E  E     E  E  E  E  E  E  E  E  Q     
--0--0--0--2-----2--0--0--0--2-----2--|-------------------------------|
--0--0--0--2-----2--0--0--0--2-----2--|--------2--3-----4--L----------|
--1--1--1--2-----2--1--1--1--2-----2--|--------2--3-----4--L----------|
--2--2--2-----------2--2--2-----------|--------2--3-----4--L----------|
--------------------------------------|--------0--1-----2--L----------|
--------------------------------------|-------------------------------|


  |--3--|  |--3--|  |--3--|  |--3--|     |--3--|  |--3--|  |--3--|  |--3--|   
  E  E  E  E  E  E  E  E  E  E  E  E     E  E  E  E  E  E  E  E  E  E  E  E   
--0--0--0--2-----2--0--0--0--2-----2--|--4--4--4-----------4--4--4-----------|
--0--0--0--2-----2--0--0--0--2-----2--|--5--5--5--5-----5--5--5--5--5-----5--|
--1--1--1--2-----2--1--1--1--2-----2--|--6--6--6--6-----6--6--6--6--6-----6--|
--2--2--2-----------2--2--2-----------|--6--6--6--6-----6--6--6--6--6-----6--|
--------------------------------------|--------------------------------------|
--------------------------------------|--------------------------------------|


  F#m                                                               
  |---3--|  |--3--|                                                 
  E   E  E  E  E  E  Q    E  E     E  E  E  E  E  E  Q              
--2---2--2--2--2--2--2----2--2--|--4--3--2--0--L----------|-------||
--2---2--2--2--2--2--2----2--2--|--4--3--2--0--L----------|-------||
--2---2--2--2--2--2--2----2--2--|--4--3--2--1--L----------|-------||
--4---4--4--4--4--4--4----4--4--|--6--5--4--2--L----------|-------||
--4---4--4--4--4--4--4----4--4--|--6--5--4--2--L----------|-------||
--2---2--2--2--2--2--2----2--2--|--4--3--2--0--L----------|-------||




            
            
Suggest correction
Creating personal tab
Creating personal tab
You can edit any tab online and save it as your Personal.

You can edit, replace or remove any tab part or add personal notes – all changes will be seen only by you.

Personal tabs can be accessed anytime from any device, even offline.
Learn more »
comments
print report bad tab
guest
You may want to rate the tab now too:
select rating
Wanna post a correction for this tab? Suggest correction