Oops, an error
Loading. Please wait.

The Wasp Texas Radio And The Big Beat Bass Tab

76 views 1 this week
no commentswrite comment
1 2 3 4 5
3 more votes to show rating
add to favorites
launch autoscroll
font size
0
reset
guitar tuner
Autoscroll
slow
fast
+/-
esc
set tempo
stop
Help us to improve Ultimate-Guitar.com Take our survey!
×
Author
About this tab version
This tab is complete with all sections no matter how trivial the bass part may be. Was this info helpful? Yes No
The Wasp (Texas Radio and the Big Beat) - The Doors - Bass

[Verse 1]
G|----------------|     |------------------|
D|----------------|     |o----------------o|
A|------------5-7-|     |o------------5-7-o|x24
E|---------/7-----|     |-0---0---0-7------|
  1 + 2 + 3 + 4 +         1 + 2 + 3 + 4 + 
      
[Chorus 1]
G|----------------|----------------|----------------|----------------|
D|----------------|----------------|----------------|----------------|
A|---/4\-----/4\--|----------------|---/4\-----/4\--|--0-1-2---------|
E|0-------0-----0-|2-3-3---3---3---|0-------0-------|----------------|
  1 + 2 + 3 + 4 +  1 + 2 + 3 + 4 +  1 + 2 + 3 + 4 +  1 + 2 + 3 + 4 +     
                                               
G|----------------|----------------|----------------|----------------|
D|----------------|----------------|----442-4-2-----|----------------|
A|---/4\-----/4\--|----------------|------------4---|------------5-7-|
E|0-------0-------|4---0---4---0---|2---------------|4-3-2-0--/7-----|
  1 + 2 + 3 + 4 +  1 + 2 + 3 + 4 +  1 + 2 + 3 + 4 +  1 + 2 + 3 + 4 +  

[Verse 2]
G|------------------|
D|o----------------o|
A|o------------5-7-o|x12
E|-0---0---0-7------|
   1 + 2 + 3 + 4 +  

[Chorus 2]
G|----------------|----------------|----------------|----------------|
D|----------------|----------------|----------------|----------------|
A|---/4\-----/4\--|----------------|---/4\-----/4\--|----------------|
E|0-------0-----0-|2-3-3---3---3---|0-------0-------|--5-6-7---------|
  1 + 2 + 3 + 4 +  1 + 2 + 3 + 4 +  1 + 2 + 3 + 4 +  1 + 2 + 3 + 4 +   
                                                   
G|----------------|----------------|----------------|----------------|
D|----------------|----------------|----442-4-2-----|------------5-7-|
A|---/4\-----/4\--|----------------|------------4---|---------/7-----|
E|0-------0-------|4---0---4---0---|2---------------|4-3-2-0---------|
  1 + 2 + 3 + 4 +  1 + 2 + 3 + 4 +  1 + 2 + 3 + 4 +  1 + 2 + 3 + 4 +  
                           
[Verse 3]
G|-------------------|
D|o-------------5-7-o|
A|o-0---0---0-7-----o|x7
E|-------------------|
    1 + 2 + 3 + 4 + 

[Guitar Solo/Interlude]
G|----------------|----------------|----------------|----------------|
D|-----------7p5--|5-7--------7p5--|5-7-------------|7---7p5---57----|
A|0---0---0-7---7-|----0---0-7---7-|----0---0---0-5-|--5----7-7--0---|
E|----------------|----------------|----------------|----------------|
  1 + 2 + 3 + 4 +  1 + 2 + 3 + 4 +  1 + 2 + 3 + 4 +  1 + 2 + 3 + 4 + 

G|-----------------|----------------|------------------|----------------|
D|---------7p5-7---|------------7-5-|-------------7p5--|7---------------|
A|0---0---7---7----|0---0---0-7-----|0---0---0---7---5-|----0---0---0---|
E|-----------------|----------------|------------------|----------------|
  1 + 2 + 3 + 4 +   1 + 2 + 3 + 4 +  1 + 2 + 3 + 4 +    1 + 2 + 3 + 4 +  
                                    
G|----------------|----------------|-----------------|----------------|
D|----7-7-5-5---5-|----7-7-5-5--57-|----7p5--5---5-7-|7p5-5-5-7p5-5-7-|
A|0-----------7---|0-----------7---|0------7---------|---7-7-----7----|
E|----------------|----------------|-----------------|----------------|
  1 + 2 + 3 + 4 +  1 + 2 + 3 + 4 +  1 + 2 + 3 + 4 +   1 + 2 + 3 + 4 +   
                                                      
G|----------------|----------------|----------------|----------------|
D|----7-7-5---5---|----7-7-5---5---|----7p5-5---5---|----------------|
A|0---------------|0---------------|0------7------7-|0---0---0---0---|
E|--------------7-|--------------7-|----------------|----------------|
  1 + 2 + 3 + 4 +  1 + 2 + 3 + 4 +  1 + 2 + 3 + 4 +  1 + 2 + 3 + 4 +  

G|666-5-6---------|----------------|666-5-6---------|----------------|
D|--------5-6-----|/4--4-2-4-2-----|--------5-6-----|--4-5-6vvv------|
A|----------------|------------4---|----------------|----------------|
E|----------------|----------------|----------------|----------------|
  1 + 2 + 3 + 4 +  1 + 2 + 3 + 4 +  1 + 2 + 3 + 4 +  1 + 2 + 3 + 4 +   

G|666-5-6---------|----------------|----------------|----------------|
D|--------666-5-6-|----------------|2h4-4-2-4-2-----|----------------|
A|----------------|777-6-7-3-4-----|------------4-2-|4p2-2-4-----5-7-|
E|----------------|----------------|----------------|---4-----/7-----|
  1 + 2 + 3 + 4 +  1 + 2 + 3 + 4 +  1 + 2 + 3 + 4 +  1 + 2 + 3 + 4 +   
 
[Verse 4/Keys Solo]      
                (x28)
G|------------------|   |----------------|----------------|
D|o----------------o|   |----------------|7p5-------------|
A|o------------5-7-o|   |7p5-7p5-7p5-7p5-|---77p5-7p5-7p5-|
E|-0---0---0-7------|   |---7---7---7---7|-------7---7---7|
   1 + 2 + 3 + 4 +       1 + 2 + 3 + 4 +  1 + 2 + 3 + 4 +  

G|----------------|----------------|----------------|----------------|
D|----------------|----------------|----------------|----------------|
A|----------------|----------------|----------------|----------------|
E|0---------------|----------------|0---------------|----------------|
  1 + 2 + 3 + 4 +  1 + 2 + 3 + 4 +  1 + 2 + 3 + 4 +  1 + 2 + 3 + 4 +  

[Chorus 3/Coda]
G|----------------|----------------|----------------|----------------|
D|----------------|----------------|----------------|----------------|
A|---/4\-----/4\--|----------------|---/4\-----/4\--|----------------|
E|0-------0-----0-|2-3-3---3---3---|0-------0-------|--5-6-7---------|
  1 + 2 + 3 + 4 +  1 + 2 + 3 + 4 +  1 + 2 + 3 + 4 +  1 + 2 + 3 + 4 +   
                                                   
G|----------------|----------------|----------------|---------------||
D|----------------|----------------|4-4-442-4-2-----|---------------||
A|---/4\-----/4\--|----------------|------------4---|---------------||
E|0-------0-------|4---0---4---0---|----------------|4-3-2-0--------||
  1 + 2 + 3 + 4 +  1 + 2 + 3 + 4 +  1 + 2 + 3 + 4 +  1 + 2 + 3 + 4 +


************************************

| h  Hammer-on
| p  Pull-off
| /  Slide up
| \  Slide down

************************************
Suggest correction
Give kudos to tab author, rate the tab!
1 2 3 4 5
comments
print report bad tab
guest
You may want to rate the tab now too:
select rating
Wanna post a correction for this tab? Suggest correction