Oops, an error
Loading. Please wait.

Twentieth Century Fox bass

version 1
version 1

Whole song

Interactive

3,328 views 3 this week
no commentswrite comment
1 2 3 4 5
2 more votes to show rating
add to favorites
×
Save as Personal and add changes to this tab that will be seen only by you. Learn more ›
×
You can save this tab as Personal to edit and correct it or add notes. All changes will be seen only by you. Learn more »
launch autoscroll
font size
0
reset
guitar tuner
edit
Autoscroll
slow
fast
+/-
esc
set tempo
stop
Author
Difficulty
This is one of my favorite Doors songs. As with all the songs on their first album, Ray Manzarek
created and recorded this bass line on his keyboard. However, simple as it may be, it is one
of the coolest bass lines in classic rock and is the primary contributing factor to the success
of this song.

Tabbed by: BASSteve

Tuning: DADG

Time signature: 4/4

r = rest (listen for duration)
{}= note inside pointed parenthesis still ringing from previous measure

* My tabs are meant to be read in conjunction with listening to the song. In other words, 
there are no specific notations to account for note / rest duration. However, you will find that
I’ve made an attempt to strategically space the notes and rests within their respective measures
in order to represent the appropriate durations.



                    (Guitar Intro)
G|-----------------|------|------------------------|------------------------|
D|-----------------|------|------------------------|------------------------|
A|-----------------|r-----|r-----------------------|r-----------------------|
D|-----------------|------|------------------------|------------------------|


                                    [9x]                         
|------------------------|------------------------|------------------------|
|------11-14-------9-12--|------11-14-------9-12--|------------------------|
|12-r--------10----------|12----------10----------|------------------------|
|------------------------|------------------------|7--r--7--r--5--r--5--r--|


                                    [2x]
|------------------------|------9-7-----7---9-7-r-|------------------------|
|------------------------|------------------------|------------------------|
|------------------------|7-7---------7-----------|------------------------|
|3--r--0--r--3--r--3--r--|------------------------|7--r--7--r--------------|


                                                                 
|------------------------|------------------------|------------------------|
|------------------------|------------------------|------------------------|
|------------------------|------------------------|------------------------|
|5--3--5--7--r-----7--5-r|7--r--7--r--------------|5--3--5--7--------7--5--|


 “No tears,        no fears,                no ruined______________________
|------------------------|------------------------|------------------------|
|------------------------|------------------------|------------------------|
|------------7-------7-r-|------------5-------5-r-|------------3-------3-r-|
|7-----10----------10----|5-----8-----------8-----|3-----6-----------6-----|


 years,            no clocks.”
|------------------------|------9-7---9-------7---|------9-7---7-9-r-7-9-r-|
|------------------------|------------------------|------------------------|
|3-----------------------|7-----------------7-----|7-7---------------------|
|------2-----5-----2-5-r-|------------------------|------------------------|


                                                             [4x]
|------------------------|------------------------|------------------------|
|------------------4-7-r-|------------------------|------------------------|
|------4-7-r-5-----------|---7--7--7--7--7--7--7--|------4-7-r-------2-5-r-|
|7-----------------------|7-----------------------|7-----------5-----------|


                 
|------------------------|------------------------|------9-7-r-9-7---9-7-r-|
|------------------------|------------------------|------------------------|
|------------------------|------------------------|7-----------------------|
|7--r--7--r--5--r--5--r--|3--r--3--r--0--r--0--r--|------------------------|


                                    [3x]
|------9-7---7-9---7-9-r-|------------------------|------------------------|
|------------------------|------------------4-7-r-|------------------------|
|7-7---------------------|------4-7-r-5-----------|---7--7--7--7--7--7--7--|
|------------------------|7-----------------------|7-----------------------|


           [3x]                     [5x]
|------------------------|------------------------|------------------------|
|------11-14-r-----9-12-r|------11-14-r-----9-12-r|------------------------|
|12-r--------10----------|12----------10----------|------------------------|
|------------------------|------------------------|7--r--7--r--5--r--5--r--|


                                    [2x]
|------------------------|------9--------9--7-9-r-|------------------------|
|0--r--0--r--------------|------------------------|------------------------|
|------------------------|7-7------7--------------|------------------------|
|0--r--0--r--3--r--3--r--|------------------------|7--r--7--r--------------|


                                                                   “Got the
|------------------------|------------------------|------------------------|
|------------------------|------------------------|------------------------|
|------------------------|------------------------|------------------------|
|5--3--5--7--r-----7--5-r|7--r--7--r--------------|5--3--5--7--------7--5--|


 world             locked up                inside___________________a
|------------------------|------------------------|------------------------|
|------------------------|------------------------|------------------------|
|------------7-------7-r-|------------5-------5-r-|------------3-------3-r-|
|7-----10----------10----|5-----8-----------8-----|3-----6-----------6-----|


 pla_______________stic box.”
|------------------------|------9-7---9-7-----9-r-|------------9-7-----9-r-|
|------------------------|------------------------|------------------------|
|3-----------------------|7-----------------7-----|7-7---------------7-----|
|------2-----5-----2-5-r-|------------------------|------------------------|


           [6x]
|------------------------|------------------------|------------------------|
|------------------4-7-r-|------------------------|------------------------|
|------4-7-r-5-----------|------------5--5--5--r--|------------------------|
|7-----------------------|7--r--7--r--------------|7-----------------------|


  
|------------------------|
|------------------------|
|------------------------|
|{7}--7--r---------------|

                   (PLEASE RATE THIS TAB / LEAVE COMMENT)

            
            
Suggest correction
Creating personal tab
Creating personal tab
You can edit any tab online and save it as your Personal.

You can edit, replace or remove any tab part or add personal notes – all changes will be seen only by you.

Personal tabs can be accessed anytime from any device, even offline.
Learn more »
Give kudos to tab author, rate the tab!
1 2 3 4 5
comments
print report bad tab
guest
You may want to rate the tab now too:
select rating
Wanna post a correction for this tab? Suggest correction