Oops, an error
Loading. Please wait.

We Could Be So Good Together Bass Tab

1,591 views 3 this week
no commentswrite comment
1 2 3 4 5
worth learning
x 1
add to favorites
launch autoscroll
font size
0
reset
guitar tuner
Tab Pro tools
  • play this tab
  • loop segment
  • change instrument
  • show fretboard
  • metronome
Autoscroll
slow
fast
+/-
esc
set tempo
stop
Contributor
-------------------------------------------------------------------------------
	        We Could Be So Good Together - The Doors
-------------------------------------------------------------------------------


G|---------------|
D|---5-3---3-----| x7
A|-------5---1-3-|
E|-3-------------|

G|-----------------|
D|---5-3-----------|
A|-------5-3-1-----|
E|-3-----------3-4-|

G|---------------------------------------------------------------|
D|---------------------------------------------------7-5-5h7p5---|
A|----------------5---5---------------------5------------------7-|
E|-5-0-5-0-55-4-3---3---33-4-5-0-5-0-55-4-3---3-4-5--------------|

G|------------------|
D|------------------| x2
A|-5-9-10-11-12-9-7-|
E|------------------|

G|---------------|
D|---------------|
A|---------------|
E|-3-3---3-3---5-|

G|---------------|
D|---7-5---5-----| x3
A|-------7---3-5-|
E|-5-------------|

G|-----------------|
D|---7-5-----------|
A|-------7-5-3-----|
E|-5-----------5-6-|

G|------------------------------------|
D|---------------9--------------------|
A|------9----9-----9---9---9----9-----|
E|-7-77---77---7-----7---7---77---7\2-|

G|----------------------------------|
D|---------------9------------------|
A|------9----9----------9----9------|
E|-7-77---77---7---7-77---77---77-6-|

G|---------------|
D|---------------|
A|---------------|
E|-5-5---3-3---5-|

G|---------------|
D|---7-5---5-----| x3
A|-------7---3-5-|
E|-5-------------|

G|-----------------|
D|---7-5-----------|
A|-------7-5-3-----|
E|-5-----------5-6-|

G|-----------------------------------|
D|-----------------------------------|
A|-----9-9----9---------7-7----7-----|
E|-7-7-----77---7-6-5-5-----55---5-6-|

G|-----------------------------------|
D|-----------------------------9-7---|
A|-----9-9----9--------------------9-|
E|-7-7-----77---7-6-5-0-5-6-7--------|


G|--------------------------------------|
D|---6-7-9--------------6-7-9-----------|
A|-7----------9----9--7----------9------|
E|---------77---77------------77---77-6-|

G|---------------|
D|---------------|
A|---------------|
E|-5-5---5-5---7-|


G|---------------|
D|---9-7---7-----| x3
A|-------9---5-7-|
E|-7-------------|

G|---------------|
D|---9-7---------|
A|-------9-7-5---|
E|-7-----------7-|


==============================================================================
| /  slide up
| \  slide down
| h  hammer-on
| p  pull-off
| ~  vibrato
| +  harmonic
| x  Mute note
==============================================================================
comments
We did not receive enough feedback on this tab! Please rate:
print report bad tab
1 2 3 4 5
I want to post or [tab]
guest
You may want to rate the tab now too:
select rating
Please do not post tabs as comments. Select "correction" instead!