Oops, an error
Loading. Please wait.

When The Musics Over Bass Tab

version 2
version 2

Whole song

Interactive

7,182 views 21 this week
no commentswrite comment
1 2 3 4 5
excellent!
x 4
add to favorites
launch autoscroll
font size
0
reset
guitar tuner
Tab Pro tools
  • play this tab
  • loop segment
  • change instrument
  • show fretboard
  • metronome
×
Best way to learn
"When The Musics Over"
Autoscroll
slow
fast
+/-
esc
set tempo
stop
Contributor
When the Music's Over - The Doors

Tabbed By: born21239
e-mail: bass21239@gmail.com

The bass on this song is played by Ray Manzarek on a Fender Rhodes Piano Bass,
not a bass guitar. Play it with your fingers and listen to the recording to pick
up on the exact timbre of the notes. You can transpose the strings however you
like, as the bassline is not originally written for the bass guitar. This is just
the way I prefer to play it and think sounds best. This is the whole song from
beginning to end, at least 99% accurate. The song is in 4/4 but has a few
measures in 2/4, denoted underneath them by (2/4).

Tuning: EADG

0:10 (repeat at 0:19, 0:28, 0:37, 0:46, 0:56, 1:05, 1:15)
G|---------------|---------------|---------------|---------------|
D|----9-9----7---|----9-9----7---|----9-9----7---|----9-9----7---|
A|-7-----------5-|-7-----------5-|-7-----------5-|-7-----------5-|
E|--------5------|--------5------|--------5------|--------5------|

1:25
G|--------------|---------------|---------------|----------------|
D|----9-9----7--|---------------|---------------|----------------|
A|-7------------|-5-5-6-7--7-7--|-5-5-6-7--7-7--|-5-5-6-7--7-7-7-|
E|--------5-----|---------------|---------------|----------------|

1:35
G|-----------------|---------|---------------|---------------|
D|-----------------|---------|----9-9----7---|----9-9----7---|
A|-7-7-7-7---------|---------|-7-----------5-|-7-----------5-|
E|---------7-7-7-7-|-7-7-7-7-|--------5------|--------5------|
                      (2/4)

1:44 (repeat at 1:53)
G|---------------|---------------|---------------|---------------|
D|----9-9----7---|----9-9----7---|----9-9----7---|----9-9----7---|
A|-7-----------5-|-7-----------5-|-7-----------5-|-7-----------5-|
E|--------5------|--------5------|--------5------|--------5------|

2:03
G|---------------|---------------|---------------|---------------|
D|----9-9----7---|----9-9----7---|----9-9----7-7-|---------------|
A|-7-----------5-|-7-----------5-|-7-------------|-5-5-6-7--7-7--|
E|--------5------|--------5------|--------5------|---------------|

2:13
G|---------------|----------------|-----------------|---------|
D|---------------|----------------|-----------------|---------|
A|-5-5-6-7--7-7--|-5-5-6-7--7-7-7-|-7-7-7-7-7-7-7-7-|-7-7-7-7-|
E|---------------|----------------|-----------------|---------|
                                                       (2/4)
2:22
G|-------------|-------------|-------------|-------------|
D|-------------|-9--9--9--9--|-------------|-9--9--9--9--|
A|-7--7--7--7--|-7--7--7--7--|-7--7--7--7--|-7--7--7--7--|
E|-5--5--5--5--|-------------|-5--5--5--5--|-------------|

2:31
G|-----7-------7---|-----7-------7--|----------|--------|
D|---7---7---7---7-|---7---7---7----|-7--------|--------|
A|-5-------5-------|-5-------5------|-5--------|--------|
E|-----------------|----------------|----------|--------|

2:41
G|--------9----9-|--------7----7-|-------9----9-|----------------|
D|------9----9---|----7-7----7---|----9-----9---|----7---7-----8-|
A|-7--7----------|-5-------------|-7------------|-5----5---5-6---|
E|---------------|---------------|--------------|----------------|

2:51
G|-----------------|-----------------|---------------|---------------|
D|---9---9---9---9-|---9---9---9---9-|----9-9----7---|----9-9----7---|
A|-7---7---7---7---|-----------------|-7-----------5-|-7-----------5-|
E|-----------------|-7---7---7---7---|--------5------|--------5------|

3:01 (repeat at 3:11, 3:20, 3:30, 3:39, 3:49)
G|---------------|---------------|---------------|---------------|
D|----9-9----7---|----9-9----7---|----9-9----7---|----9-9----7---|
A|-7-----------5-|-7-----------5-|-7-----------5-|-7-----------5-|
E|--------5------|--------5------|--------5------|--------5------|

3:59
G|---------------|---------------|---------------|----------------|
D|----9-9----7---|----9-9----7---|----9-9----7---|----9-9-----7---|
A|-7-----------5-|-7-----------5-|-7-----------5-|-7------------5-|
E|--------5------|--------5------|--------5------|--------5-5-----|

4:09
G|----------------|----------------|---------------|---------------|
D|----9-9-----7---|----9-9-----7---|----9-9----7---|----9-9----7---|
A|-7------------5-|-7------------5-|-7-----------5-|-7-----------5-|
E|--------5-5-----|--------5-5-----|--------5------|--------5------|

4:19 (repeat at 4:29)
G|---------------|---------------|---------------|---------------|
D|----9-9----7---|----9-9----7---|----9-9----7---|----9-9----7---|
A|-7-----------5-|-7-----------5-|-7-----------5-|-7-----------5-|
E|--------5------|--------5------|--------5------|--------5------|

4:38
G|---------------|---------------|----------------|---------------|
D|----9-9----7---|----9-9----7---|----9-9-----7---|----9-9----7---|
A|-7-----------5-|-7-----------5-|-7------------5-|-7-----------5-|
E|--------5------|--------5------|--------5-5-----|--------5------|

4:48
G|---------------|---------------|---------------|---------------|
D|----9-9----7---|----9-9----7---|----9-9----7---|----9-9----7---|
A|-7-----------5-|-7-----------5-|-7-----------5-|-7-----------5-|
E|--------5------|--------5------|--------5------|--------5------|

4:58 (repeat at 5:08)
G|---------------|---------------|---------------|---------------|
D|----9-9----7---|----9-9----7---|----9-9----7---|----9-9----7---|
A|-7-----------5-|-7-----------5-|-7-----------5-|-7-----------5-|
E|--------5------|--------5------|--------5------|--------5------|

5:18
G|---------------|---------------|----------------|---------------|
D|----9-9----7---|----9-9----7---|----9-9-----7---|----9-9----7---|
A|-7-----------5-|-7-----------5-|-7------------5-|-7-----------5-|
E|--------5------|--------5------|--------5-5-----|--------5------|

5:28 (repeat at 5:38)
G|----------------|---------------|----------------|---------------|
D|----9-9-----7---|----9-9----7---|----9-9-----7---|----9-9----7---|
A|-7------------5-|-7-----------5-|-7------------5-|-7-----------5-|
E|--------5-5-----|--------5------|--------5-5-----|--------5------|

5:48
G|----------------|---------------|---------------|---------------|
D|----9-9-----7---|----9-9----7---|----9-9----7---|----9-9----7---|
A|-7------------5-|-7-----------5-|-7-----------5-|-7-----------5-|
E|--------5-5-----|--------5------|--------5------|--------5------|

5:58
G|---------------|---------------|---------------|---------------|
D|----9-9----7---|----9-9----7---|----9-9----7---|----9-9----7---|
A|-7-----------5-|-7-----------5-|-7-----------5-|-7-----------5-|
E|--------5------|--------5------|--------5------|--------5------|

6:08
G|---------------|---------------|----------------|---------------|
D|----9-9----7---|----9-9----7---|----9-9-----7---|----9-9----7---|
A|-7-----------5-|-7-----------5-|-7------------5-|-7-----------5-|
E|--------5------|--------5------|--------5-5-----|--------5------|

6:18
G|----------------|---------------|----------------|---------------|
D|----9-9-----7---|----9-9----7---|----9-9-----7---|----9-9----7---|
A|-7------------5-|-7-----------5-|-7------------5-|-7-----------5-|
E|--------5-5-----|--------5------|--------5-5-----|--------5------|

6:28
G|----------------|---------------|----------------|----------------|
D|----9-9-----7---|----9-9----7---|----9-9-----7---|----9-9-----7---|
A|-7------------5-|-7-----------5-|-7------------5-|-7------------5-|
E|--------5-5-----|--------5------|--------5-5-----|--------5-5-----|

6:38
G|----------------|-------------|------------|-------------|
D|----9-9-----7---|---------0---|-2-----0-4--|-2-------0-4-|
A|-7------------5-|-7-----2---2-|------------|-------2-----|
E|--------5-5-----|-------------|------------|-------------|

6:48
G|-----------2-|-------------|--------0----|----------2---|
D|-2-------4---|-2---2----0--|-2---2----0--|-2---2--4---0-|
A|-------2-----|--------2----|-------------|--------------|
E|-------------|-------------|-------------|--------------|

6:58
G|--------42-----|--------------|---------02-0--|--------------|
D|-2---2-----4-0-|-2---2----0-4-|-2---2--4----4-|-2---2----0-4-|
A|---------------|--------2-----|---------------|--------2-----|
E|---------------|--------------|---------------|--------------|

7:07
G|--------02-0---|--------------|--------40---|--------------|
D|-2---2-------4-|-2---2----4-4-|-2---2----4--|-2---2--4---0-|
A|---------------|--------2-----|-------------|----------2---|
E|---------------|--------------|-------------|--------------|

7:17 (repeat at 7:27)
G|--------------|--------------|--------------|--------------|
D|-2---2--4---0-|-2---2--4---0-|-2---2--4---0-|-2---2--4---0-|
A|----------2---|----------2---|----------2---|----------2---|
E|--------------|--------------|--------------|--------------|

7:37
G|--------------|-----------|-----------|-----------|
D|-2---2--4---0-|-2-------0-|-2-------0-|-2-------0-|
A|----------2---|-----------|-----------|-----------|
E|--------------|-----------|-----------|-----------|

7:47
G|-----------|-----------|-----------|-----------|
D|-2-------0-|-2-------0-|-2-------0-|-2-------0-|
A|-----------|-----------|-----------|-----------|
E|-----------|-----------|-----------|-----------|

7:57
G|-----------|-----------|-----------|-----------|
D|-2-------0-|-2-------0-|-2-------0-|-2--2--2-0-|
A|-----------|-----------|-----------|-----------|
E|-----------|-----------|-----------|-----------|

8:07
G|-----------|-----------|------------|---------------|
D|-2--2--2-0-|-2--2--2-0-|-2--2--2----|----9-9----7---|
A|-----------|-----------|------------|-7-----------5-|
E|-----------|-----------|------------|--------5------|

8:17 (repeat at 8:26, 8:36, 8:46, 8:55, 9:04, 9:14, 9:23, 9:33)
G|---------------|---------------|---------------|---------------|
D|----9-9----7---|----9-9----7---|----9-9----7---|----9-9----7---|
A|-7-----------5-|-7-----------5-|-7-----------5-|-7-----------5-|
E|--------5------|--------5------|--------5------|--------5------|

9:43
G|---------------|----------------|---------------|---------------|
D|----9-9----7---|----9-9-----7---|----9-9----7---|----9-9----7---|
A|-7-----------5-|-7------------5-|-7-----------5-|-7-----------5-|
E|--------5------|--------5-5-----|--------5------|--------5------|

9:53
G|---------------|---------------|---------------|---------------|
D|----9-9----7---|----9-9----7---|----9-9----7---|----9-9----7---|
A|-7-----------5-|-7-----------5-|-7-----------5-|-7-----------5-|
E|--------5------|--------5------|--------5------|--------5------|

10:03
G|---------------|---------------|---------------|---------------|
D|----9-9----7---|----9-9----7---|----9-9----7-7-|---------------|
A|-7-----------5-|-7-----------5-|-7-------------|-5-5-6-7--7-7--|
E|--------5------|--------5------|--------5------|---------------|

10:13
G|---------------|----------------|-----------------|---------|
D|---------------|----------------|-----------------|---------|
A|-5-5-6-7--7-7--|-5-5-6-7--7-7-7-|-7-7-7-7-7-7-7-7-|-7-7-7-7-|
E|---------------|----------------|-----------------|---------|
                                                       (2/4)
10:22
G|-------------|-------------|-------------|-------------|
D|-------------|-9--9--9--9--|-------------|-9--9--9--9--|
A|-7--7--7--7--|-7--7--7--7--|-7--7--7--7--|-7--7--7--7--|
E|-5--5--5--5--|-------------|-5--5--5--5--|-------------|

10:32
G|-----7-------7---|-----7-------7---|----------|--------|
D|---7---7---7---7-|---7---7---7---7-|-7--------|--------|
A|-5-------5-------|-5-------5-------|-5--------|--------|
E|-----------------|-----------------|----------|--------|

10:41
G|--------9----9-|--------7----7-|--------9----9-|-------------|
D|-9----9----9---|-7----7----7---|-9----9----9---|----7--7-8---|
A|-7--7----------|-5--5----------|-7--7----------|-5--5--5-6---|
E|---------------|---------------|---------------|-------------|

10:53 
G|-------------------|---------------|-----|
D|-9--9-9-9-9-9-9-9--|-9-9-9-9--9----|-(9)-|
A|-7---7-7-7-7-7-7-7-|--7-7-7-7-7----|-(7)-|
E|-------------------|---------------|-----|
comments
print report bad tab
I want to post or [tab]
guest
You may want to rate the tab now too:
select rating
Please do not post tabs as comments. Select "correction" instead!