Oops, an error
Loading. Please wait.

Who Scared You Tab

9,597 views 1 this week
no commentswrite comment
1 2 3 4 5
accurate
x 3
add to favorites
launch autoscroll
font size
0
reset
how to read this tab
guitar tuner
Tab Pro tools
  • play this tab
  • loop segment
  • change instrument
  • show fretboard
  • metronome
×
Best way to learn
"Who Scared You"
Autoscroll
slow
fast
+/-
esc
set tempo
stop
Contributor
  Riff 1:

e|-------0--------------------|
B|-----3----------------------|
G|-2/4-----2--2h3p2-0---------|
D|--------------------2-0-----|
A|------------------------0---|
E|----------------------------|

  Riff 2:                             
                                     
e|-------0---0-2-0-3\2-0---|         
B|-----3---2-------------2-|         
G|-2/4---------------------|         
D|-------------------------|         
A|-------------------------|         
E|-------------------------|         
                                     
  Riff 3:                             
                                     
e|-------0---0-2-0-9-7\--|
B|-----3---2-------------|
G|-2/4-------------------|
D|-----------------------|
A|-----------------------|
E|-----------------------|

  Bridge 1:

e|------------------------|
B|------------------------|
G|-0-0-0-x-x-0-0-0---0-0--|
D|-5-5-5-x-x-5-5-5---4-3--|
A|-5-5-5-x-x-5-5-5---4-3--|
E|------------------------|

  Solo:

e|-3h5p3--------------------------------------------|
B|-------5-3----------------------------------------|
G|-----------4-2--3~------0h2-4--------0h2h3h4--3~--|
D|--------------------0h2--------0h1h2--------------|
A|--------------------------------------------------|
E|--------------------------------------------------|

e|----------------------------------------------0-3-------------------|
B|------------------------------------------2/3-----------------------|
G|-----0---------------------0--3p2-0---------------2~-2h3p2-0--------|
D|-0h2---------0-------0h1h2----------2-0----------------------2-0----|
A|-------0h1h2---0h1h2--------------------2------------------------2--|
E|--------------------------------------------------------------------|

e|-------10-12------------------------------------------------|
B|-10/12--------------------10----10/12-------------------10--|
G|-------------12-9----9-12----12-------12-9-12-9-12-9-12-----|
D|------------------12----------------------------------------|
A|------------------------------------------------------------|
E|------------------------------------------------------------|

e|--------------------------------------------------------------|
B|-10/12-----------------10/12-10----10/12-10-------------------|
G|-------12-9-12--9-12-9----------12----------12-9-----0---2b---|
D|---------------------------------------------------2---2------|
A|--------------------------------------------------------------|
E|--------------------------------------------------------------|

 Bridge 2:

e|-----7\--5--6--| 
B|-----6\--4--5--| 
G|-----7\--5--6--| 
D|-0-0-----------|
A|---------------|
E|---------------|

  Riff 4:                          Riff 4 bis:
                                                                        
e|----------------------------|  |---------------------------|
B|------4-6-------------------|  |------4-6------------------|
G|--3/5-----3~--3h4p3---------|ou|--3/5-----3~h4p3-----------|
D|--------------------6-3-----|  |-----------------6-3-------|
A|------------------------6-3-|  |---------------------6-3---|
E|----------------------------|  |-------------------------4-|

  Riff 5:

e|------------1-3-1-4\3-1-|
B|-----4-6-3~-------------|
G|-3/5--------------------|
D|------------------------|
A|------------------------|
E|------------------------|

  Riff 6:

e|------------1-3-1-10-8\-|
B|-----4-6-3~-------------|
G|-3/5--------------------|
D|------------------------|
A|------------------------|
E|------------------------|

FINAL:
    
e|------------------------ 
B|------------------------  
G|-------------1h2h3-5~---  
D|-------1h2h3------------  
A|-1h2h3------------------
E|------------------------...

Order of parts:

Riff1 *4 | Riff1 *2   | Riff5 *1 | Final
Riff2 *1 | Bridge1 *2 | Riff4 *3 |
Riff1 *3 | Riff1 *2   | Riff5 *1 |
Riff2 *1 | Solo       | Riff4 *3 |
Riff1 *3 | Bridge2 *4 | Riff5 *2 |
Riff2 *2 | Riff1 *2   | Riff6 *1 |
Riff3 *1 | Riff4 *3   | Riff4 *3 |
comments
We did not receive enough feedback on this tab! Please rate:
print report bad tab
1 2 3 4 5
I want to post or [tab]
guest
You may want to rate the tab now too:
select rating
Please do not post tabs as comments. Select "correction" instead!