Oops, an error
Loading. Please wait.

Wild Child Bass Tab

version 2
version 2

Whole song

Interactive

450 views 1 this week
no commentswrite comment
1 2 3 4 5
please rate
add to favorites
launch autoscroll
font size
0
reset
guitar tuner
Tab Pro tools
  • play this tab
  • loop segment
  • change instrument
  • show fretboard
  • metronome
Autoscroll
slow
fast
+/-
esc
set tempo
stop
Contributor
Difficulty
intermediate
The Doors
“Wild Child”

  intro/verse
G|-----------------------|
D|-----7/8—--------------|
A|10-10----10101010--8-5-|
E|-----------------------|
(those are really fast 10’s, not 1-0’s)

Chorus (this part is instrumental)
G|------------------------53-53-53-53---------------|
D|----7------------6--------5--5--5--------5-5-3-0--|
A|--7---7--------5---5------------------------------|
E|5-------5----3-------3--------------3-3-/---------|

  solo (with Jim’s spoken lyrics)
G|------------4-4------------------------------------|
D|-----1-2-3/4-----1-2-3-44444-2-4-------44444-2-4---|
A|2-2------------------------------------------------|
E|----------------------------------222-2------------|

G|-------------2-3-4-4----------------------------------------|
D|---------1----------1-2-3-44444-2-4---------44444-2-4-------|
A|------2-2---------------------------------------------------|
E|222-2--------------------------------222-2------------222-2-|

 "With hunger at her heels.."
G|------------------------------------------------------------------------------|
D|------------------------------------------------------------------------------|
A|1---1---1-1-----2---2---2-2---2-1---1---1-1-----2---2---2-2---2-1---1---1-1---|
E|--0---0-----0-2---2---2-----2-----0---0-----0-2---2---2-----2-----0---0-----0-|

G|-------------------------------|
D|------7------------6--------5--|
A|----7---7--------5---5---------|
E|2-5-------5----3-------3-------|

   "Wild child full of grace.."
G|----------------------------------------------------------|
D|----------------------------------------------------------|
A|----------------------------------------------------------|
E|13-3-3-313-3-3-313-3-3-313-3-3-313333333133333331333333313|

Remember when we were in Africa?
comments
We did not receive enough feedback on this tab! Please rate:
print report bad tab
1 2 3 4 5
I want to post or [tab]
guest
You may want to rate the tab now too:
select rating
Please do not post tabs as comments. Select "correction" instead!