Oops, an error
Loading. Please wait.

Wild Child Tab

version 2
version 2

Interactive

10,857 views 9 this week
4 commentsread comments
1 2 3 4 5
x 3
add to favorites
launch autoscroll
font size
0
reset
how to read this tab
guitar tuner
×
Best way to learn
"Wild Child"
Autoscroll
slow
fast
+/-
esc
set tempo
stop
Artist: The Doors
Song: Wild Child
Album: The Soft Parade



Main Riff
|---------------------------|
|---------------------------|
|---------------------------|
|----------------------0----|
|---------------------------|
|-3-3-5b6----3-3-3-3-1------|


|-----------------------------------------------------------------|
|-----------------------------------------------------------------|
|-----5-----5-----5--------4-----4-----4----5-3---5-3---5-3---5-3-| 
|---6-----6-----6--------5-----5-----5----------5-----5-----5-----|
|-7-----7-----7--------6-----6-----6------------------------------|
|-----------------------------------------------------------------|
(They use a slide but I play it this so
i dont have to tune the guitar different)
Suggest correction
Give kudos to tab author, rate the tab!
1 2 3 4 5
comments
print report bad tab
4 comments total. Showing first comments.
0 reply
ibanez87 311 May 18, 2005 08:00 PM

Good, this is Better than version1!

0 reply
SRV99 20 Feb 19, 2006 09:16 AM

you could also use drop-D tuning (drop the low E to a D) and play it like this:
|---------------------------|
|---------------------------|
|---------------------------|
|---------------------------|
|---------------------------|
|-5-5-7b8----5-5-5-5-3-0----|
It's the exact same thing, only it ends with a low D instead of a high D.

0 reply
BrotherThump 10 Jul 29, 2006 06:58 PM

lazy *******

guest
You may want to rate the tab now too:
select rating
Wanna post a correction for this tab? Suggest correction