Oops, an error
Loading. Please wait.

Wild Child Bass Tab

version 3
version 3

Whole song

Interactive

2,506 views 6 this week
no commentswrite comment
1 2 3 4 5
excellent!
x 4
add to favorites
launch autoscroll
font size
0
reset
guitar tuner
Tab Pro tools
  • play this tab
  • loop segment
  • change instrument
  • show fretboard
  • metronome
Autoscroll
slow
fast
+/-
esc
set tempo
stop
Contributor
Wild Child by the Doors
(standard tuning)


|--------3-----------------|
|--5--5-------5-5-5-5-3----|
|-----------------------5--|
|--------------------------|


|-----------------------|--5p3----5p3----5p3----5p3---|
|-7---7---7---6---6---6-|------5------5------5------5-|            
|---7---7-------6---6---|-----------------------------|
|-----------------------|-----------------------------|


|--------3-----------------|
|--5--5-------5-5-5-5-3----|
|-----------------------5--|
|--------------------------|


|-----5---------5------------5-|---------------------------------------|
|-5/7-----5-6-7----------3-5---|-----5-3-3-3-3---3-------5-3-3-3-3---3-|
|-------------------3--5-------|---------------5-------------------5---|
|------------------------------|-3-3-----------------3-3---------------|


|---------5--------5-------------|---------------------------------------|
|---7-8-9------6-8---5-5-5-5-3-5-|-----5-3-3-3-3---3-------5-3-3-3-3---3-|
|-8----------8-------------------|---------------5-------------------5---|
|--------------------------------|-3-3-----------------3-3---------------|


|-3---3---3-3--4--5---5---5-5--4--|
|---3---3-----------5---5---------|
|---------------------------------|
|---------------------------------|


|-2---2---2----1---1---1--|
|---2---2--------1---1----|
|-------------------------|
|-------------------------|


|------------------------|
|------------------------|
|------------------------|
|-3-3-3-3-1---3-3-3-3--1-|

Im not sure how many times you do everything, I 
didnt feel like counting but you can figuer it out.
comments
print report bad tab
I want to post or [tab]
guest
You may want to rate the tab now too:
select rating
Please do not post tabs as comments. Select "correction" instead!