Oops, an error
Loading. Please wait.

Wild Child Bass Tab

version 5
version 5

Whole song

Interactive

1,483 views 12 this week
no commentswrite comment
1 2 3 4 5
please rate
add to favorites
launch autoscroll
font size
0
reset
guitar tuner
Tab Pro tools
  • play this tab
  • loop segment
  • change instrument
  • show fretboard
  • metronome
Autoscroll
slow
fast
+/-
esc
set tempo
stop
Contributor
Wild Child - The Doors

Tabbed By: born21239
e-mail: bass21239@gmail.com

The bassline on this song is played by frequent Doors session
bassist Doug Lubahn on an electric bass using a pick. Note that
contrary to instinct, the last beat in the song is carried only
by a muted cymbal crash and no bass. The song is in 4/4, but there 
are a few measures in 3/4, denoted by (3/4) above them.

Tuning: EADG

0:06
G|----------|------------------------|------------------------|------------------------|
D|----------|-------8----------------|-------8----------------|-------8----------------|
A|-------5/-|-10-10----10101010-8----|-10-10----10101010-8----|-10-10----10101010-8----|
E|----------|---------------------10-|---------------------10-|---------------------10-|

0:17
G|------------------------|------------------------|------------------------|
D|-------8----------------|-------8----------------|-------8----------------|
A|-10-10----10101010-8----|-10-10----10101010-8----|-10-10----10101010-8----|
E|---------------------10-|---------------------10-|---------------------10-|

0:26
G|------------------------|-------------------------|--------------|
D|-------8----------------|-------8-----------------|-----7--------|
A|-10-10----10101010-8----|-10-10----10101010-8-----|---7---7------|
E|---------------------10-|---------------------10\-|-5-------5----|

0:35                    (3/4)
G|--------------|-------------------|-------------------|
D|-----6--------|-------------------|-------------------|
A|---6---6------|-3\1-3r1-3r1--3\1--|-----1/--10-10-8\--|
E|-4-------4----|----3---3---3------|-3-3---------------|

0:42
G|-------------------|------------------------|------------------------|
D|-------------------|-------8----------------|-------8----------------|
A|-----1/--10-10-8/--|-10-10----10101010-8----|-10-10----10101010-8----|
E|-3-3---------------|---------------------10-|---------------------10-|

0:50
G|------------------------|------------------------|------------------------|
D|-------8----------------|-------8----------------|-------8----------------|
A|-10-10----10101010-8----|-10-10----10101010-8----|-10-10----10101010-8----|
E|---------------------10-|---------------------10-|---------------------10-|

0:59
G|-------------------------|--------------|--------------|
D|-------8-----------------|-----7--------|-----6--------|
A|-10-10----10101010-8-----|---7---7------|---6---6------|
E|---------------------10\-|-5-------5----|-4-------4----|

1:07    (3/4)
G|-------------------|-------------------|----------------------|
D|-------------------|-------------------|-------------------3\-|
A|-3\1-3r1-3r1--3\1--|-----1/--10-10-8\--|-----1/--10\----------|
E|----3---3---3------|-3-3---------------|-3-3---------8\-3/----|

1:15
G|----------------|----------------|---------------------|
D|----------------|-10-10----------|---------------------|
A|-3-3--/7--8--10-|--------7--8--9-|-10-10-10-8-10\------|
E|----------------|----------------|----------------3-3--|

1:23
G|------------------------|--------------|------------------|
D|------------------------|---------8--9-|-10-10------------|
A|-10-10-10-8-10\---------|------7-------|--------7---8---9-|
E|----------------3-3/13\-|-8-8----------|-----------8---9--|

1:32
G|-----------------------|-----------------------|-----------------|
D|-----------------------|-----------------------|-----------------|
A|-10-10-10-8-10\-----5/-|-10-10-10-8-10\---5-3\-|-1---1---1-1---2-|
E|----------------3-3----|----------------3------|---1---1-----1---|

1:40
G|-----------------|-----------------|------------------|
D|-----------------|-----------------|------------------|
A|-3---3---3-3---2-|-1---1---1-1---2-|-3---3---3-3---3\-|
E|---3---3-----3---|---1---1-----1---|---3---3-----3----|

1:48
G|------------------|---------------|--------------|
D|------------------|------7--------|-----6--------|
A|-1---1---1-1------|----7---7------|---6---6------|
E|---1---1-----1-/3-|-/5-------5----|-4-------4----|

1:57
G|-----------|--------------|--------------|
D|-----------|--------------|--------------|
A|-----------|--------------|--------------|
E|-3-------1-|-3--3--3--3-1-|-3--3--3--3-1-|

2:05
G|--------------|--------------|-----------------|
D|--------------|--------------|-----------------|
A|--------------|--------------|-----------------|
E|-3--3--3--3-1-|-3--3--3--3-1-|-3-3-3-3-3-3-3-1-|

2:14 (repeat at 2:22)
G|-----------------|-----------------|-----------------|
D|-----------------|-----------------|-----------------|
A|-----------------|-----------------|-----------------|
E|-3-3-3-3-3-3-3-1-|-3-3-3-3-3-3-3-1-|-3-3-3-3-3-3-3-1-|

2:31
G|-----------------|---|
D|-----------------|---|
A|-----------------|---|
E|-3-3-3-3-3-3-3-1-|---|
comments
We did not receive enough feedback on this tab! Please rate:
print report bad tab
1 2 3 4 5
I want to post or [tab]
guest
You may want to rate the tab now too:
select rating
Please do not post tabs as comments. Select "correction" instead!