Oops, an error
Loading. Please wait.

Wintertime Love Bass Tab

1,593 views 3 this week
1 commentread comment
1 2 3 4 5
please rate
add to favorites
launch autoscroll
font size
0
reset
guitar tuner
Tab Pro tools
  • play this tab
  • loop segment
  • change instrument
  • show fretboard
  • metronome
×
Best way to learn
"Wintertime Love"
Autoscroll
slow
fast
+/-
esc
set tempo
stop
Contributor
-------------------------------------------------------------------------------
			 Wintertime Love - The Doors
-------------------------------------------------------------------------------

 G|-----------------------|
 D|-----------------------|
 A|-5-5/12---12\7---7\0-0-|
 E|-----------------------|

 G|-----------------2-5------------------2-5--------------|
 D|---5-9----4-7--3--------2-5----3-7--3--------2-5-7-----|
 A|-7------5-------------3------5-------------3-------7\0-|
 E|-------------------------------------------------------|

 G|-----------------2-5------------------2-5-----------------------9-9-9-9---|
 D|---5-9----4-7--3--------2-5----3-7--3--------2-5--7-7-7---7---7---------7-|
 A|-7------5-------------3------5-------------3------------7---7-------------|
 E|--------------------------------------------------------------------------|

 G|----77---77---77----------------------------------|
 D|----------------------------------7-8-9---9-7h9p7-|
 A|-5-----5----5----5-7-8-9-9---9-9--------9---------|
 E|---------------------------9----------------------|

 G|-------------------------|
 D|-5---5-7---7-5---5-7---7-|
 A|---5-----7-----5-----7---|
 E|-------------------------|

 G|-----------------------|
 D|-----------------------|
 A|-5-5/12---12\7---7\0-0-|
 E|-----------------------|

 G|--------------------------------------------------------|
 D|---------------3h5p3----------------3h5p3-------------7-|
 A|-7h9p7--5h7p5---------3h5p3--5h7p5----------------------|
 E|-------------------------------------------6h8p6--5-5---|

 G|----------------------------------------------------------------9-9-9-9---|
 D|---------------3h5p3----------------3h5p3---------7-7-7---7---7---------7-|
 A|-7h9p7--5h7p5---------3h5p3--5h7p5----------------------7---7-------------|
 E|-------------------------------------------6h8p6--------------------------|

 G|----77---77---77----------------------------------|
 D|----------------------------------7-8-9---9-7h9p7-|
 A|-5-----5----5----5-7-8-9-9---9-9--------9---------|
 E|---------------------------9----------------------|

 G|-------------------------|
 D|-5---5-7---7-5---5-7---7-|
 A|---5-----7-----5-----7---|
 E|-------------------------|

 G|-----------------------|
 D|-----------------------|
 A|-5-5/12---12\7---7\0-0-|
 E|-----------------------|

 G|-----------------------------------------------------------------------|
 D|----------------16---------------------16-----------------14-12--------|
 A|-14-14-14-14-17----14---15-15-15-15-17----15--12-12-12-12-------12-----|
 E|-----------------------------------------------------------------------|

   -----------------------------------9-9-9-9---|
   ---------------------7-7-7---7---7---------7-|
   -11-11-11-11---------------7---7-------------|
   -------------12-10-9-------------------------|

 G|----77---77---77---------------------------|
 D|-------------------------------------------|
 A|-5-----5----5----5-7-8-9-9-----------------|
 E|---------------------------9\2-2-5-777-555-|

 G|-------------------------|
 D|-5---5-7---7-5---5-7---7-|
 A|---5-----7-----5-----7---|
 E|-------------------------|

 G|---------------|
 D|---------------|
 A|-5-5/12---12\5-|
 E|---------------|

===============================================================================
| \  slide down                           | /  slide up
| h  hammer-on                            | p  pull-off
===============================================================================
comments
We did not receive enough feedback on this tab! Please rate:
print report bad tab
1 2 3 4 5
1 comment total.
0 reply
SoftParade1967 wrote on October 10 2007, 08:07 pm

oh my god this is ****in perfect! Amazing tab!

5/5!

I want to post or [tab]
guest
You may want to rate the tab now too:
select rating
Please do not post tabs as comments. Select "correction" instead!