Oops, an error
Loading. Please wait.

Wishful Sinful Bass Tab

version 2
version 2

Whole song

730 views 9 this week
no commentswrite comment
1 2 3 4 5
excellent!
x 2
add to favorites
launch autoscroll
font size
0
reset
guitar tuner
Tab Pro tools
  • play this tab
  • loop segment
  • change instrument
  • show fretboard
  • metronome
Autoscroll
slow
fast
+/-
esc
set tempo
stop
Contributor
Wishful Sinful - The Doors

Tabbed By: born21239
e-mail: bass21239@gmail.com

The bassline on this song is likely played by session bassist Harvey Brooks
on an electric bass guitar.

Tuning: EADG

0:00
G|--9-7-------|----------|-------7--9--7-|-------7----|
D|-------7--5-|-0--------|---5/7---------|-8--------8-|
A|------------|----------|---------------|------------|
E|------------|----------|---------------|------------|

0:09
G|-------11--------|----7-10--7----|----5/6-9--6----|----------|
D|-9--12-----12-9--|-8----------8--|-7-----------7\-|-0--------|
A|-----------------|---------------|----------------|----------|
E|-----------------|---------------|----------------|----------|

0:17
G|------7--9-7---|-----------|----------------|---------------|
D|-5-7---------7-|-8---------|-------7--------|---------------|
A|---------------|-----------|---5-8----8-5---|----7--10------|
E|---------------|-----------|-6------------6-|-8---------8-7-|

0:26
G|--------------|--------------|-------------|----------|
D|--------------|--------------|-------------|----------|
A|----5--8--5-8-|----4--7----4-|-------------|----------|
E|-6------------|-5--------5---|-5--4--3--2--|-1--------|

0:34
G|--------------|-------------------|----------------2-|----2-5--------|
D|--------------|-----------------9-|-7\----2-0--2/4---|-3---------2-5-|
A|--------------|----7-10-7--9/11---|-----4------------|--------3------|
E|----1-1-1-2/--|-8-----------------|------------------|---------------|

0:42
G|-----7-------7---|-----7-------7----|---------------|---------------|
D|---7---7---7---7-|---7---7---7---7\-|---------------|---------------|
A|-5-------5-------|-5-------5--------|-3-------------|----3-4-5--6-7-|
E|-----------------|------------------|----0-3-0--3-4-|-5-------------|

0:51
G|-----------------|-----7-------7---|-----7---7-------|----------|
D|----7-10---------|---7---7---7---7-|---7---7---7-5-7-|----------|
A|-8----------7-10-|-5-------5-------|-5---------------|-5--------|
E|---------8-------|-----------------|-----------------|----------|

0:59
G|--------7--9-|-------7----|-------11--------|----6/7-10--7----|
D|--5--7-------|-8--------8-|-9--12-------9---|-8-------------8-|
A|-------------|------------|-----------9---9-|-----------------|
E|-------------|------------|-----------------|-----------------|

1:07
G|----5/6-9--6-----|-----------0-1-|-2-------------|-----------0-1-|
D|-7-----------7\--|-0---0-0-2-----|---------------|-0---0-0-2-----|
A|-----------------|---------------|-----0-0-2-3-4-|---------------|
E|-----------------|---------------|---------------|---------------|

1:16
G|-2-------------|---------------|---------------|---------------|
D|---------------|----7---7----7-|----7---7----7-|----7---7----7-|
A|---------------|------7----7---|------7----7---|------7----7---|
E|-----5-5\0-0/4-|-5-------------|-5-------------|-5-------------|

1:24
G|---------------|---------------|--------------|-9\8--------|
D|----7---7----7-|----7---7----7-|----7---7--7--|------------|
A|------7----7---|------7----7---|------7-------|------------|
E|-5-------------|-5-------------|-5------------|------------|

1:32
G|-8\7--------|-7\5--------|-5\4--------|----------|
D|------------|------------|------------|----------|
A|------------|------------|------------|----------|
E|------------|------------|------------|-0--------|

1:40
G|---------------|-----------------|-----------------|-----------------|
D|---------------|-----------------|-----------------|-----------------|
A|----------12\--|-5---5---5---5---|-5---5---5---5---|-5---5---5---5---|
E|-(0)-----------|---5---5---5---5-|---5---5---5---5-|---5---5---5---5-|

1:49
G|-----------------|-----------------|-----------------|-----------------|
D|-----------------|-----------------|-----------------|-----------------|
A|-5---5---5---5---|-5---5---5---5---|-5---5---5-4-3-2-|-1---1---1---1---|
E|---5---5---5---5-|---5---5---5---5-|---5---5---------|---1---1---1---1-|

1:57
G|-----------------|-----------------|-----------------|-----------------|
D|-----------------|-----------------|-----------------|-----------------|
A|-1---1---1---1-2-|-3---3---3---3-2-|-1---1---1---1---|-0-0-0-0-0-0-0-0-|
E|---1---1---1-----|---3---3---3-----|---1---1---1---1-|-----------------|

2:05
G|-------------|---------------|--------------------------|-----------------|
D|-7--6--5--4--|-3---3-3-3-3-3-|-3h5p3--3h5p3--3h5p3--3\--|----1/2-5--------|
A|-------------|---------------|--------------------------|-3---------------|
E|-------------|---------------|--------------------------|----------0--3-4-|

2:13
G|---------------|--------------------|-------------------------|
D|---------------|----8h10p8----------|-------12----------12----|
A|-0--3-4-5--6-7-|-8-----------8h10---|----12----12----12----12-|
E|---------------|-----------8------8-|-10----------10----------|

2:19
G|--------------------------|------------------|-------------------|
D|-------12----------12-----|------------5/6-9-|-7---------------7-|
A|----12----12----12----12\-|----7-10-7--------|--------7-5--7/9---|
E|-10----------10-----------|-8----------------|----/9-------------|

2:25
G|-----------------|--------------------------|-----------------|
D|----7-10---------|-------12----------12-----|-----7-------7---|
A|-8----------7-10-|----12----12----12----12\-|---7---7---7---7-|
E|---------8-------|-10----------10-----------|-5-------5-------|

2:31
G|---------------|---------------|---------------|---------------|
D|---------------|---------------|---------------|---------------|
A|-5---5-5-4-3-2-|-0---0-0-2-3-4-|-5---5-5-4-3-2-|-0---0-0-2-3-4-|
E|---------------|---------------|---------------|---------------|

2:39
G|---------------|---------------|---------------|---------------|
D|---------------|---------------|---------------|---------------|
A|-5---5-5-4-3-2-|-0---0-0-2-3-4-|-5---5-5-4-3-2-|-0---0-0-2-3-4-|
E|---------------|---------------|---------------|---------------|

2:48
G|----------|-11-|
D|-0--------|-0--|
A|----------|----|
E|----------|----|
comments
We did not receive enough feedback on this tab! Please rate:
print report bad tab
1 2 3 4 5
I want to post or [tab]
guest
You may want to rate the tab now too:
select rating
Please do not post tabs as comments. Select "correction" instead!