Oops, an error
Loading. Please wait.

Youre Lost Little Girl Bass Tab

version 2
version 2

Whole song

Interactive

1,466 views 9 this week
no commentswrite comment
1 2 3 4 5
please rate
add to favorites
launch autoscroll
font size
0
reset
guitar tuner
Tab Pro tools
  • play this tab
  • loop segment
  • change instrument
  • show fretboard
  • metronome
×
Best way to learn
"Youre Lost Little Girl"
Autoscroll
slow
fast
+/-
esc
set tempo
stop
Contributor
Difficulty
intermediate
Some remarks about this tab:
- because Ray Manzarek plays the bass with his keyboard, the fingerings are sometimes a bit akward;
- I'm not sure about the Gmin part in the verse riff, so if you know the right one please tell me;
- the bass does some variations in the solo but you'll figure that out;
- the doors rock!

intro

  E7      C      5x|
G|-----------------|
D|--4-2-0----------|
A|--------3-2-0-2--|
E|0--------------3-|

chorus


 "you're a lost       "you're lost,     "are you?"
  little girl"         tell me who"
  E7      C      3x||E7      C         G       F   A 
G|-----------------||-----------------|----------------|
D|--4-2-0----------||--4-2-0----------|----------------|
A|--------3-2-0-2--||--------3-2-0-2--|--5---5---3---7-|
E|0--------------3-||0--------------3-|3---3---1---5---|

verse riff

 "think that       "impossible
  you know.."          "guess..."
 D       Gm    3x|D
|----------------|--------------9\-|
|--4-7-4---------|--4-7-4---7------|
|5-----------2-4-|5-------5---5----|
|--------3-5-----|-----------------|


 "I think that you know what to do, yeah"
  G       Bm      F      A
G|---------------|-----------------|
D|---------------|33--3------------|
A|---------------|-----------------|
E|3--33---7--77--|---1-1---55--555-|


 "sure that
   you know..."
 D       Gm    3x|| D
|----------------||---------------|
|--4-7-4---------||--4-7-4--------|
|5-----------2-4-||5-------5-555\-|
|--------3-5-----||---------------|

then the chorus again


solo

  Em7       C               3x|G              F       A
G|---7---4----4----4----------|------------------------------|
D|-----5----5--------2-5--75--|------------------------------|
A|7-------------3-----------7-|-----------5------------------|
E|----------------------------|3--3-3-3-3---3-1-1-1-1-5-5-5-5|

then again the verse riff,
and finally the chorus.

that's it.. that wasn't so hard now was it?
please tell me what you think about this tab!

cheers, Marc (marcvanzee@hotmail.com)
comments
We did not receive enough feedback on this tab! Please rate:
print report bad tab
1 2 3 4 5
I want to post or [tab]
guest
You may want to rate the tab now too:
select rating
Please do not post tabs as comments. Select "correction" instead!