Oops, an error
Loading. Please wait.

Youre Lost Little Girl Bass Tab

version 4
version 4

Whole song

Interactive

6,212 views 45 this week
1 commentread comment
1 2 3 4 5
excellent!
x 2
add to favorites
launch autoscroll
font size
0
reset
guitar tuner
Tab Pro tools
  • play this tab
  • loop segment
  • change instrument
  • show fretboard
  • metronome
Autoscroll
slow
fast
+/-
esc
set tempo
stop
Contributor
You're Lost, Little Girl - The Doors

Tabbed By: born21239
e-mail: bass21239@gmail.com

The bass on this song is played by frequent Doors session
bassist Doug Lubahn on an electric bass guitar.

Tuning: EADG

0:01 (repeat at 0:09, 0:18, 0:26)
G|-------------|--------------|-------------|--------------|
D|----4--2--0--|--------------|----4--2--0--|--------------|
A|-------------|-3--2--0--2---|-------------|-3--2--0--2---|
E|-0-----------|------------3-|-0-----------|------------3-|

0:35
G|-------------|--------------|--------------|-------------|
D|----4--2--0--|--------------|--------------|-------------|
A|-------------|-3--2--0--2---|----5-----5---|----3--------|
E|-0-----------|------------0-|-3-----3----3-|-1-----5--5--|

0:43
G|--------------|-------------|--------------|-------------|
D|----4--7------|-------------|----4--7------|-------------|
A|-5--------5\--|----1--3--4--|-5--------5\--|----1--3--4--|
E|--------------|-3-----------|--------------|-3-----------|

0:52
G|--------------|-------------|-------------|--------------|
D|----4--7------|-------------|----4--7-----|----7---------|
A|-5--------5\--|----1--3--4--|-5-----------|-5-----5--5\--|
E|--------------|-3-----------|----------5--|--------------|

1:00
G|------------|------------|--------------|---------------|
D|------------|------------|-3-3----3-----|---------------|
A|------------|-2---2-2----|------3-------|---------------|
E|-3---3-3----|------------|----------1---|-5-5--5-5-5--5-|

1:09
G|--------------|-------------|-------------|----------------|
D|----4--7------|-------------|----4--7-----|----------------|
A|-5--------5\--|----1--3--4--|-5-----------|-5---5-5--(5)\--|
E|--------------|-3-----------|----------5--|----------------|

1:18 (repeat at 1:26)
G|-------------|--------------|-------------|--------------|
D|----4--2--0--|--------------|----4--2--0--|--------------|
A|-------------|-3--2--0--2---|-------------|-3--2--0--2---|
E|-0-----------|------------3-|-0-----------|------------3-|

1:35
G|-------------|--------------|-------------|-------------|
D|----4--2--0--|--------------|-------------|-------------|
A|-------------|-3--2--0--2---|------5------|-------0--0--|
E|-0-----------|------------0-|-3-------3-2-|-1--1--------|

1:43
G|-----7------------|------------------|-----7------------|----------------|
D|----------9-----9-|-----8---5--7p5---|----------9-----9-|-----8---5--7---|
A|-7-----10----10---|-------7--------5-|-7-----10----10---|-------7------5-|
E|------------------|-8----------------|------------------|-8--------------|

1:52
G|-----7------------|-----------------|----------------|-----------------|
D|----------9-----9-|-----8---5-75----|----------------|-----------------|
A|-7-----10----10---|-------7-----7-5-|------------5---|-----------------|
E|------------------|-8---------------|-3--3-3-3-3---3-|-1-1-1-1-5-5-5-5-|

2:01
G|--------------|-------------|--------------|-------0------|
D|----4--7------|-------------|----4--7------|--------------|
A|-5--------5\--|----1--3--4--|-5--------5\--|----1-----3/--|
E|--------------|-3-----------|--------------|-3------------|

2:09
G|--------------|-------------|-------------|----------------|
D|----4--7------|-------------|----4--7-----|----------------|
A|-5--------5\--|----1--3--4--|-5-----------|-5---5-5--(5)\--|
E|--------------|-3-----------|----------5--|----------------|

2:18
G|--------------|------------|---------------|-------------------|
D|--------------|------------|-3-3--3-3-3--3-|-------------------|
A|----------5\--|-2---2-2----|---------------|-0-0-0-0-0-0-3/-4/-|
E|-3---3-3------|------------|---------------|-------------------|

2:27
G|--------------|---------------|-------------|------------|
D|----4--7------|-------5p3-----|----4--7-----|------------|
A|-5--------5\--|----1------3-4-|-5-----------|-5------5\--|
E|--------------|-3-------------|----------5--|------------|

2:36 (repeat at 2:44)
G|-------------|--------------|-------------|--------------|
D|----4--2--0--|--------------|----4--2--0--|--------------|
A|-------------|-3--2--0--2---|-------------|-3--2--0--2---|
E|-0-----------|------------3-|-0-----------|------------3-|

2:53
G|-----------|-----|
D|----4------|-(4)-|
A|-----------|-----|
E|-0---------|-(0)-|
comments
We did not receive enough feedback on this tab! Please rate:
print report bad tab
1 2 3 4 5
1 comment total.
0 reply
WibbleWobble wrote on March 16 2011, 03:22 pm

great tab man

I want to post or [tab]
guest
You may want to rate the tab now too:
select rating
Please do not post tabs as comments. Select "correction" instead!