Oops, an error
Loading. Please wait.

Heads Up Dusters tab

310 views 1 this week
2 commentsread comments
1 2 3 4 5
x 3
add to favorites
×
Save as Personal and add changes to this tab that will be seen only by you. Learn more ›
×
You can save this tab as Personal to edit and correct it or add notes. All changes will be seen only by you. Learn more »
launch autoscroll
font size
0
reset
how to read this tab
guitar tuner
edit
Autoscroll
slow
fast
+/-
esc
set tempo
stop
Author
Difficulty
INTRO                                   Heads Up Dusters - Dopamines
e|-----|        
b|-----|        
g|-5---|        
d|-5-5-|        
a|-3-5-|        
e|---3-|
        
VERSE
e|-------------|                e|------------|
b|-------------|                b|------------|
g|--------5----|                g|-7-----5----|
d|-5------5-x8-| x4             d|-7-x28-5-x4-|
a|-5-x24--3----|                a|-5-----3----|
e|-3-----------|                e|------------|
  P.M.---------o                  P.M.--o

CHORUS x4
e|-------------------------------------------------------------------|
b|-------------------------------------------------------------------|
g|-----------------7 7 7 7 7 7 7 7-----------------5-5-5-5-(5)-5-5-5-|
d|-5-5-5-5-5-5-5-5-7-7-7-7-7-7-7-7-9-9-9-9-9-9-9-9-5-5-5-5-(5)-5-5-5-| 
a|-5-5-5-5-5-5-5-5-5-5-5-5-5-5-5-5-9-9-9-9-9-9-9-9-3-3-3-3-(3)-3-3-3-|
e|-3-3-3-3-3-3-3-3-----------------7-7-7-7-7-7-7-7-------------------|

On the third measure second guitar plays this
e|-------------------------------------------------------------------|
b|-------------------------------------------------------------------|
g|-7-7-7-7-7-7-7-7-111111111111118-8-8-8-8-8-8-8-9-9-9-9-9-9-9-9-----|
d|-7-7-7-7-7-7-7-7-111111111111118-8-8-8-8-8-8-8-9-9-9-9-9-9-9-9-----| 
a|-5-5-5-5-5-5-5-5-9-9-9-9-9-9-9-9-6-6-6-6-6-6-6-6-7-7-7-7-7-7-7-7---|
e|-------------------------------------------------------------------|

VERSE
e|-------------|                e|------------|
b|-------------|                b|------------|
g|--------5----|                g|-7-----5----|
d|-5------5-x8-| x4             d|-7-x28-5-x4-|
a|-5-x24--3----|                a|-5-----3----|
e|-3-----------|                e|------------|
  P.M.---o                        P.M.—o

CHORUS X4

BRIDGE
e|-----------------------------------------------------------------|
b|-----------------------------------------------------------------|
g|-5-5-5-5-------------------------5-5-5-5-------------------------|
d|-5-5-5-5-3-3-3-3-5-5-5-5-7-7-7-7-5-5-5-5-3-3-3-3-5-5-5-5-5-5-5-5-| x2
a|-3-3-3-3-3-3-3-3-5-5-5-5-7-7-7-7-3-3-3-3-3-3-3-3-5-5-5-5-5-5-5-5-|
e|---------1-1-1-1-3-3-3-3-5-5-5-5---------1-1-1-1-3-3-3-3-3-3-3-3-|

e|-----------------------------------------|
b|-----------------------------------------|
g|-7-7-7-7-7-7-7-7-----------------5-5-5-5-|
d|-7-7-7-7-7-7-7-7-7-7-7-7-7-7-7-7-5-5-5-5-|
a|-5-5-5-5-5-5-5-5-7-7-7-7-7-7-7-7-3-3-3-3-|
e|-----------------5-5-5-5-5-5-5-5---------|

CHORUS x4

OUTRO
e|-------|
b|-------|
g|-------|
d|-5-9-2-|
a|-5-9-2-|
e|-3-7-0-|

Thanks to Lugnut7 for noticing a mistake and adding the second guitar part!

(use font Courier, 9 for easy printing)

            
            
Suggest correction
Creating personal tab
Creating personal tab
You can edit any tab online and save it as your Personal.

You can edit, replace or remove any tab part or add personal notes – all changes will be seen only by you.

Personal tabs can be accessed anytime from any device, even offline.
Learn more »
Give kudos to tab author, rate the tab!
1 2 3 4 5
comments
print report bad tab
2 comments total.
0 reply
Lugnut7 126 Oct 06, 2014 07:54 AM

Lack of accuracy. Clearly wrong. Chorus is not correct at all. The power chord root notes I listed below.

E3 x8
A5 x8
A2 x8
A3 x8

on the third measure in the chorus the second guitar plays this over top the main guitar:

A5 x8
A9 x8
A6 x8
A7 x8

guest
You may want to rate the tab now too:
select rating
Wanna post a correction for this tab? Suggest correction