Oops, an error
Loading. Please wait.

Truth Lies Inside Tab

31 views 1 this week
no commentswrite comment
1 2 3 4 5
3 more votes to show rating
add to favorites
launch autoscroll
font size
0
reset
how to read this tab
guitar tuner
Autoscroll
slow
fast
+/-
esc
set tempo
stop
Help us to improve Ultimate-Guitar.com Take our survey!
×
Author
Difficulty
Tuning
novice
D A D G B E
About this tab version
This is tabbed by ear so it may not be exact. Was this info helpful? Yes No
Truth Lies Inside - The Dose

Drop D Tuning


[Intro]

E|----------|
B|----------|
G|----------|
D|-x-x--x-x-|
A|-x-x--x-x-|
D|-x-x--x-x-|(x3)


[Verse]

E|--------------------------|
B|--------------------------|
G|-7-------7------10------5-|
D|-5-------5-------8------3-|
A|-5-------5-------8------3-|
D|--------------------------|(x2)


[Riff 2]

E|----------------------|
B|----------------------|
G|----------------------|
D|----------------------|
A|----------------------|
D|-5(32x)-8(16x)-3(16x)-|(x2)


[Pre-Chorus]

E|------------------|
B|------------------|
G|------------------|
D|------------------|
A|3h5-3h5-3h5-3h5-3-|
D|3h5-3h5-3h5-3h5-3-|(x3)


[Chorus]

E|--------------------------------------------------------------|
B|--------------------------------------------------------------|
G|--------------------------------------------------------------|
D|3---5---------------------------------------------------------|
A|1-3-3-3-3h5-3h5-3h5-3h5-3-3h5-3h5-3h5-3h5-3-3h5-3h5-3h5-3h5-3-|
D|--3---3-3h5-3h5-3h5-3h5-3-3h5-3h5-3h5-3h5-3-3h5-3h5-3h5-3h5-3-|(x2)


[Verse 2]

E|--------------------------|
B|--------------------------|
G|-7-------7------10------5-|
D|-5-------5-------8------3-|
A|-5-------5-------8------3-|
D|--------------------------|(x2)


[Riff 2]

E|---------------------|
B|---------------------|
G|---------------------|
D|---------------------|
A|---------------------|
D|5(32x)-8(16x)-3(16x)-|(x2)


[Pre-Chorus 2]

E|------------------|
B|------------------|
G|------------------|
D|------------------|
A|3h5-3h5-3h5-3h5-3-|
D|3h5-3h5-3h5-3h5-3-|(x3)


[Chorus 2]

E|--------------------------------------------------------------|
B|--------------------------------------------------------------|
G|--------------------------------------------------------------|
D|3---5---------------------------------------------------------|
A|1-3-3-3-3h5-3h5-3h5-3h5-3-3h5-3h5-3h5-3h5-3-3h5-3h5-3h5-3h5-3-|
D|--3---3-3h5-3h5-3h5-3h5-3-3h5-3h5-3h5-3h5-3-3h5-3h5-3h5-3h5-3-|(x2)


[Bridge]

(Rhythm)
E|---------------------|     E|-----------------|
B|---------------------|     B|-----------------|
G|---------------------|     G|-----------------|
D|---------------------|     D|-----------------| Last Time Only
A|8------10------6---5-|     A|8------10------6-|
D|8------10------6---5-|(x2) D|8------10------6-|

(Lead)
E|--------------------------------|
B|--------------------------------|
G|--------------------------------|
D|---------------------10-8-10b-8-|
A|--------------------------------|
D|--------------------------------|(x2)

(Lead Second Time)
E|--------------------------------|
B|--------------------------------|
G|--------------------------------|
D|--------------------------------|
A|--------------------------------|
D|---------------------10-8-10b-8-|(x2)

(Lead Third Time)
E|--------------------------------|
B|--------------------------------|
G|--------------------------------|
D|---------------------10-8-10b-8-|
A|--------------------------------|
D|--------------------------------|(x2)


[Pre-Chorus]

E|------------------|
B|------------------|
G|------------------|
D|------------------|
A|3h5-3h5-3h5-3h5-3-|
D|3h5-3h5-3h5-3h5-3-|(x3)


[Chorus 3]

E|--------------------------------------------------------------|
B|--------------------------------------------------------------|
G|--------------------------------------------------------------|
D|3---5---------------------------------------------------------|
A|1-3-3-3-3h5-3h5-3h5-3h5-3-3h5-3h5-3h5-3h5-3-3h5-3h5-3h5-3h5-3-|
D|--3---3-3h5-3h5-3h5-3h5-3-3h5-3h5-3h5-3h5-3-3h5-3h5-3h5-3h5-3-|(x3)


[Outro]

E|-----------|
B|-----------|
G|-----------|
D|3---5------| Let Last Chord Ring
A|1-3-3-3---'|
D|--3---3----|

E|-----------|
B|-----------|
G|-----------|
D|-----------|
A|5-5--5--5-5|
D|5-5--5--5-5|


************************************

| x  on rhythm slash represents muted slash
| h  Hammer-on
| b  Bend

************************************
Suggest correction
Give kudos to tab author, rate the tab!
1 2 3 4 5
comments
print report bad tab
guest
You may want to rate the tab now too:
select rating
Wanna post a correction for this tab? Suggest correction