Oops, an error
Loading. Please wait.

Death Vanity tab

52 views 3 this week
no commentswrite comment
1 2 3 4 5
3 more votes to show rating
add to favorites
×
Save as Personal and add changes to this tab that will be seen only by you. Learn more ›
×
You can save this tab as Personal to edit and correct it or add notes. All changes will be seen only by you. Learn more »
launch autoscroll
font size
0
reset
how to read this tab
guitar tuner
edit
Autoscroll
slow
fast
+/-
esc
set tempo
stop
Time signature - 4/4
BPM - 239 ≈


[Intro]

Clean guitar

e|---------------------------------------------------------------------------|
B|---------------------------------------------------------------------------|
G|---------------------------------------------------------------------------|        X 2
D|---------7---------7---------7---------------------------------------------|
A|------5---5-----5---5-----5---5-----3--3-----------------------------------|
D|-----0-0---0---8-8---8---5-5---5---1--3------------------------------------|

e|---------------------------------------------------------------------------|
B|---------------------------------------------------------------------------|
G|----------7-----------7------------7---------------------------------------|        X 2
D|------7----7------7----7-------7----7--------------------------------------|
A|-------5----5------5----5-------5----5----3---3----------------------------|
D|-----0-----------8------------5----------1---3-----------------------------|

Distorted Guitar

e|---------------------------------------------------------------------------|
B|---------------------------------------------------------------------------|
G|---------------------------------------------------------------------------|
D|---------------------------------------------------------------------------|
A|---5-3h5----5-3h5---5-3h5----5p3-------------------------------------------|
D|--0--------0-------0--------0----5h3---------------------------------------|

e|---------------------------------------------------------------------------|
B|---------------------------------------------------------------------------|
G|---------------------------------------------------------------------------|
D|---------------------------------------------------------------------------|
A|---5-3h5----5-3h5---5-3h5---------3----------------------------------------|
D|--0--------0-------0--------0-5h3------------------------------------------|
                                   (*)
e|---------------------------------------------------------------------------|
B|---------------------------------------------------------------------------|
G|---------------------------------------------------------------------------|
D|---------------------------------------------------------------------------|
A|---5-3h5----5-3h5---5-3h5----5p3-------------------------------------------|
D|--0--------0-------0--------0----5h3---------------------------------------|


e|--------------------------------------------------------------------------|
B|--------------------------------------------------------------------------|
G|--------------------------------------------------------------------------|
D|--------------------------------------------------------------------------|
A|---5-3h5----5-3h5---5-3h5----5p3------------------------------------------|
D|--0--------0-------0--------0----5b(6)------------------------------------|


[Verse]

e|---------------------------------------------------------------------------|
B|---------------------------------------------------------------------------|
G|---------------------------------------------------------------------------|
D|---------------------------------------------------------------------------|
A|---5-3h5----5-3h5---5-3h5----5p3-------------------------------------------|
D|--0--------0-------0--------0----5h3---------------------------------------|    
                                                                              X 2
e|--------------------------------------------------------------------------|
B|--------------------------------------------------------------------------|
G|--------------------------------------------------------------------------|
D|--------------------------------------------------------------------------|
A|---5-3h5----5-3h5---5-3h5----5p3------------------------------------------|
D|--0--------0-------0--------0----5b(6)------------------------------------|


[Interlude]

e|---------------|
B|---------------|
G|---------------|
D|---------------|        X 8
A|------5-5------|
D|---0-3-3-3-----|
  PM . .


[Chorus]

   Rhythm guitar

e|--------------------------|
B|--------------------------|
G|--------------------------|
D|--0----3----5----8--10----|   X 2
A|--0----3----5----8--10----|
D|--0----3----5----8--10----|

   Lead Guitar

e|-----------------------------------------|
B|--10--------13--------12--------15-------|
G|--12b(14)---15b(17)---14b(16)---17b(19)--|
D|-----------------------------------------|   X 2
A|-----------------------------------------|
D|-----------------------------------------|


[Verse 2]

(same as verse 1 with interlude only 4 times)

e|---------------------------------------------------------------------------|
B|---------------------------------------------------------------------------|
G|---------------------------------------------------------------------------|
D|---------------------------------------------------------------------------|
A|---5-3h5----5-3h5---5-3h5----5p3-------------------------------------------|
D|--0--------0-------0--------0----5h3---------------------------------------|    
                                                                              X 2
e|--------------------------------------------------------------------------|
B|--------------------------------------------------------------------------|
G|--------------------------------------------------------------------------|
D|--------------------------------------------------------------------------|
A|---5-3h5----5-3h5---5-3h5----5p3------------------------------------------|
D|--0--------0-------0--------0----5b(6)------------------------------------|


[Interlude]

e|---------------|
B|---------------|
G|---------------|
D|---------------|        X 4
A|------5-5------|
D|---0-3-3-3-----|
  PM . .


[Bridge]

e|---------------------------------------------------------------------------|
B|---------------------------------------------------------------------------|
G|---------------------------------------------------------------------------|
D|---------------------------------------------------------------------------|
A|---------------------------------------------------------------------------|
D|--10\---0-3-2-0---6-5-3-6----0-6-5-3---5-3-2-3-----------------------------|
       PM .......   .......    .......   ....

e|---------------------------------------------------------------------------|
B|---------------------------------------------------------------------------|
G|---------------------------------------------------------------------------|
D|---------------------------------------------------------------------------|
A|---------------------------------------------------------------------------|
D|--------0-3-2-0---6-5-3-6----0-6-5-3---5-3---2-----------------------------|
       PM .......   .......    .......        (*)


[Pattern 1]

e|---------------------------------------------------------------------------|     
B|---------------------------------------------------------------------------|
G|---------------------------------------------------------------------------|
D|---------------------------------------------------------------------------|
A|---------------------------------------------------------------------------|
D|--------0-3-2-0---6-5-3-6----0-6-5-3---5-3-2-3-----------------------------|
       PM .......   .......    .......   ....                                    X 3  
e|---------------------------------------------------------------------------|
B|---------------------------------------------------------------------------|
G|---------------------------------------------------------------------------|
D|---------------------------------------------------------------------------|
A|---------------------------------------------------------------------------|
D|--------0-3-2-0---6-5-3-6----0-6-5-3---5-3---2~~~--------------------------|    
       PM .......   .......    .......


[Pattern 2]

e|---------------------------------------------------------------------------|     
B|---------------------------------------------------------------------------|
G|---------------------------------------------------------------------------|
D|---------------------------------------------------------------------------|
A|---------------------------------------------------------------------------|
D|--------0-3-2-0---6-5-3-6----0-6-5-3---5-3-2-3-----------------------------|            
                                                                                 X 2
e|---------------------------------------------------------------------------|
B|---------------------------------------------------------------------------|
G|---------------------------------------------------------------------------|
D|---------------------------------------------------------------------------|
A|---------------------------------------------------------------------------|
D|--------0-3-2-0---6-5-3-6----0-6-5-3---5-3---2-----------------------------|     
                                              (*)

 [Pattern 1]

e|---------------------------------------------------------------------------|     
B|---------------------------------------------------------------------------|
G|---------------------------------------------------------------------------|
D|---------------------------------------------------------------------------|
A|---------------------------------------------------------------------------|
D|--------0-3-2-0---6-5-3-6----0-6-5-3---5-3-2-3-----------------------------|
       PM .......   .......    .......   ....                                    X 2 
e|---------------------------------------------------------------------------|
B|---------------------------------------------------------------------------|
G|---------------------------------------------------------------------------|
D|---------------------------------------------------------------------------|
A|---------------------------------------------------------------------------|
D|--------0-3-2-0---6-5-3-6----0-6-5-3---5-3---2~~~--------------------------|    
       PM .......   .......    .......

           
[Pattern 2]
  
(harmonic only on the last time)

e|---------------------------------------------------------------------------|     
B|---------------------------------------------------------------------------|
G|---------------------------------------------------------------------------|
D|---------------------------------------------------------------------------|
A|---------------------------------------------------------------------------|
D|--------0-3-2-0---6-5-3-6----0-6-5-3---5-3-2-3-----------------------------|            
                                                                                 X 4
e|---------------------------------------------------------------------------|
B|---------------------------------------------------------------------------|
G|---------------------------------------------------------------------------|
D|---------------------------------------------------------------------------|
A|---------------------------------------------------------------------------|
D|--------0-3-2-0---6-5-3-6----0-6-5-3---5-3---2-----------------------------|     
                                              (*)

                                                                                          
[Outro]

e|---------------------------------------------------------------------------|
B|---------------------------------------------------------------------------|
G|---------------------------------------------------------------------------|
D|---------------------------------------------------------------------------|
A|---------------------------------------------------------------------------|
D|-0-6-5---0-6-5---0-6-5---0-6-5----2-2-2------------------------------------|
                                 PM . . .                                      X 2
e|---------------------------------------------------------------------------|
B|---------------------------------------------------------------------------|
G|---------------------------------------------------------------------------|
D|---------------------------------------------------------------------------|
A|---------------------------------------------------------------------------|
D|-0-6-5---0-5-3-2---0-------------------------------------------------------|
                  PM .

                                  
************************************
| h   Hammer-on
| p   Pull-off
| r   Release
| b   Bend
| \   Slide down
| ~   Vibrato
| PM  Palm mute
| (*) Harmonic
************************************

            
            
Suggest correction
Creating personal tab
Creating personal tab
You can edit any tab online and save it as your Personal.

You can edit, replace or remove any tab part or add personal notes – all changes will be seen only by you.

Personal tabs can be accessed anytime from any device, even offline.
Learn more »
Give kudos to tab author, rate the tab!
1 2 3 4 5
comments
print report bad tab
guest
You may want to rate the tab now too:
select rating
Wanna post a correction for this tab? Suggest correction