Oops, an error
Loading. Please wait.

I Just Wanna Run Tab

version 2
version 2

Whole song

11,011 views 3 this week
1 commentread comment
1 2 3 4 5
excellent!
x 11
add to favorites
launch autoscroll
font size
0
reset
how to read this tab
guitar tuner
Autoscroll
slow
fast
+/-
esc
set tempo
stop
Help us to improve Ultimate-Guitar.com Take our survey!
×
Contributor
Tuning
TDFmkk3 47
D A D G B E
Title: "I Just Wanna Run"
Artist: The Downtown Fiction
Album: Best I Never Had - EP
www.myspace.com/thedowntownfiction
www.thedowntownfiction.com

Tabbed by: Melissa
My email: melissakosciow@yahoo.com
twitter: @melissakk

TUNING - DROP D

Intro (palm mute 2x, then regular stumming 1x)
e|-------------------------------------------------------------------------|
B|-------------------------------------------------------------------------|
G|---6-6-6-6-6-6-6-6---------------------4-4-4-4-4-4-4-4-------------------|
D|---6-6-6-6-6-6-6-6---2-2-2-2-2-2-2-2---4-4-4-4-4-4-4-4---4-4-4-4-4-4-4-4-|
A|---4-4-4-4-4-4-4-4---2-2-2-2-2-2-2-2---2-2-2-2-2-2-2-2---4-4-4-4-4-4-4-4-|
E|---------------------2-2-2-2-2-2-2-2---------------------4-4-4-4-4-4-4-4-|


Verse (palm muted 4x, listen for when to release palm mute on last chord)
e|-------------------------------------------------------------------------|
B|-------------------------------------------------------------------------|
G|--6-6-6---6-6-6--------------------4-4-4---4-4-4-------------------------|
D|--6-6-6---6-6-6----2-2-2---2-2-2---4-4-4---4-4-4----4-4-4---4-4-4--------|
A|--4-4-4---4-4-4----2-2-2---2-2-2---2-2-2---2-2-2----4-4-4---4-4-4--------|
E|-------------------2-2-2---2-2-2--------------------4-4-4---4-4-4--------|

Guitar 2 (0:38-0:40)
e|-------------------------------------------------------------------------|
B|-------9-----------------------------------------------------------------|
G|--6-6-----9--------------------------------------------------------------|
D|-------------------------------------------------------------------------|
A|-------------------------------------------------------------------------|
E|-------------------------------------------------------------------------|


Chorus
e|-------------------------------------------------------------------------|
B|-------------------------------------------------------------------------|
G|---6-6-6-6-6-6-6-6---------------------4-4-4-4-4-4-4-4-------------------|
D|---6-6-6-6-6-6-6-6---2-2-2-2-2-2-2-2---4-4-4-4-4-4-4-4---4-4-4-4-4-4-4-4-|
A|---4-4-4-4-4-4-4-4---2-2-2-2-2-2-2-2---2-2-2-2-2-2-2-2---4-4-4-4-4-4-4-4-|
E|---------------------2-2-2-2-2-2-2-2---------------------4-4-4-4-4-4-4-4-|


Post Chorus (1:08-1:14)
e|-------------------------------------------------------------------------|
B|-------------------------------------------------------------------------|
G|---6-6-6-6-6-6-6-6-6-6-6-6-6-6-6-6---------------------------------------|
D|---6-6-6-6-6-6-6-6-6-6-6-6-6-6-6-6---------------------------------------|
A|---4-4-4-4-4-4-4-4-4-4-4-4-4-4-4-4---------------------------------------|
E|-------------------------------------------------------------------------|

e|-------------------------------------------------------------------------|
B|-------------------------------------------------------------------------|
G|-------------------------------------------------------------------------|
D|---4-4-4-4-4-4-4-4-4-4-4-4-4-4-4-4---------------------------------------|
A|---4-4-4-4-4-4-4-4-4-4-4-4-4-4-4-4---------------------------------------|
E|---4-4-4-4-4-4-4-4-4-4-4-4-4-4-4-4---------------------------------------|

Verse 2
Chorus
Post Chorus

Solo (2:08-2:22)
e|-------------------------------------------------------------------------|
B|-------------------------------------------------------------------------|
G|--13-13-13---9-9-9-9---11-11-11---8-8-8-8---11-11-11---8-8-8-8-----------|
D|-------------------------------------------------------------------------|
A|-------------------------------------------------------------------------|
E|-------------------------------------------------------------------------|

e|-------------------------------------------------------------------------|
B|-------------------------------------------------------------------------|
G|--8-/-9-\-8---6-6---4---13-13-13---9-9-9-9---11-11-11---8-8-8-8----------|
D|-------------------------------------------------------------------------|
A|-------------------------------------------------------------------------|
E|-------------------------------------------------------------------------|

e|-------------------------------------------------------------------------|
B|--------------------14-\-------------------------------------------------|
G|--8---9---11---13--------------------------------------------------------|
D|-------------------------------------------------------------------------|
A|-------------------------------------------------------------------------|
E|-------------------------------------------------------------------------|


then play 1x this palm muted
e|-------------------------------------------------------------------------|
B|-------------------------------------------------------------------------|
G|---6-6-6-6-6-6-6-6---------------------4-4-4-4-4-4-4-4-------------------|
D|---6-6-6-6-6-6-6-6---2-2-2-2-2-2-2-2---4-4-4-4-4-4-4-4---4-4-4-4-4-4-4-4-|
A|---4-4-4-4-4-4-4-4---2-2-2-2-2-2-2-2---2-2-2-2-2-2-2-2---4-4-4-4-4-4-4-4-|
E|---------------------2-2-2-2-2-2-2-2---------------------4-4-4-4-4-4-4-4-|

then this 2x palm muted
e|-------------------------------------------------------------------------|
B|-------------------------------------------------------------------------|
G|--6-6-6---6-6-6--------------------4-4-4---4-4-4-------------------------|
D|--6-6-6---6-6-6----2-2-2---2-2-2---4-4-4---4-4-4----4-4-4---4-4-4--------|
A|--4-4-4---4-4-4----2-2-2---2-2-2---2-2-2---2-2-2----4-4-4---4-4-4--------|
E|-------------------2-2-2---2-2-2--------------------4-4-4---4-4-4--------|


Chorus 2x
(during last chorus Guitar 2 plays the solo in the background)

End with:
Guitar 1
e|------------|
B|------------|
G|--6-6-6-----|
D|--6-6-6-----|
A|--4-4-4-----|
E|------------|

Guitar 2
e|----------------------------------------------|
B|--14-14-14-14-14-14-14-14-14-/----------------|
G|----------------------------------------------|
D|----------------------------------------------|
A|----------------------------------------------|
E|----------------------------------------------|
comments
print report bad tab
1 comment total.
+3 reply
gustavoaraujo9 2,752 wrote on February 19 2011, 07:23 am

Great tab!

I think during the chorus a second guitar plays these octaves:


e|------------------------------------------|
B|------------------------------------------|
G|-66666666-4444-3333-----------------------|
D|-xxxxxxxx-xxxx-xxxx-----------------------|
A|-44444444-2222-1111-----------------------|
E|------------------------------------------|

I want to post or [tab]
guest
You may want to rate the tab now too:
select rating
Please do not post tabs as comments. Select "correction" instead!