Oops, an error
Loading. Please wait.

Is Anybody Out There Tab

251 views 1 this week
no commentswrite comment
1 2 3 4 5
please rate
add to favorites
launch autoscroll
font size
0
reset
how to read this tab
guitar tuner
Autoscroll
slow
fast
+/-
esc
set tempo
stop
Help us to improve Ultimate-Guitar.com Take our survey!
×
Author
Title: Is There Anybody Out There
Artist: The Downtown Fiction
Album: The Double EP(2010)

Tabbed by: angeluskai@hotmail.com

Tuning: Standard-EADGBe

Any corrections, leave a comment

************************************

| /     Slide
| x     Mute note
|--x--| Palm mute
************************************

INTRO:

Guitar 1
e:---------------------------------|
B:---------------------------------|
G:--7--10-----10---9--7--10--------|
D:--7--10--8--10--10--7--10--8--3--|
A:--5---8--8---8---7--5---8--8--3--|
E:---------6-----------------6--1--|

Guitar 2
e:---------------------------------------------------------------------|
B:---------------------------------------------------------------------|
G:-/10--17--14--12--10--12--14--12--14--12--10--17--14--12--10--12--10-|
D:-/-x---x---x---x---x---x---x---x---x---x---x---x---x---x---x---x---x-|
A:-/-8--15--12--10---8--10--12--10--12--10---8--15--12--10---8--10---8-|
E:---------------------------------------------------------------------|


VERSE:

Guitar 1
e:--------------------|
B:--------------------|
G:--------------------|
D:--7--10-----10--10--|
A:--5---8--8---8---7--|
E:---------6----------|
 |-xx  xx  xx  xx  xx-|

"He tries to fight..."
e:-----------------------|
B:-----------------------|
G:-----------------------|
D:--7--10-----10-----10--|
A:--5---8--8---8--8--10--|
E:---------6------6---8--|
 |-xx  xx  xx xx xx-|

Guitar 2 (Enters at :27)
e:-------------------|
B:-------------------|
G:--7--10-----10--9--|
D:--x---x--8---x--x--|
A:--5---8--x---8--7--|
E:---------6---------|


CHORUS:
e:------------------------------------------|
B:------------------------------------------|
G:-----7--10-----7--10-----7--10------------|
D:--8--7--10--8--7--10--8--7--10--8--7--11--|
A:--8--5---8--8--5---8--8--5---8--8--7--11--|
E:--6---------6---------6---------6--5---9--|


POST-CHORUS:
e:-----|
B:-----|
G:-----|
D:--7--|
A:--5--|
E:-----|
 |-xxx-|

VERSE:

Guitar 1
e:--------------------|
B:--------------------|
G:--------------------|
D:--7--10-----10--10--|
A:--5---8--8---8---7--|
E:---------6----------|
 |-xx  xx  xx  xx  xx-|

"The trick he sees..."
e:-----------------------|
B:-----------------------|
G:-----------------------|
D:--7--10-----10-----10--|
A:--5---8--8---8--8--10--|
E:---------6------6---8--|
  |-xx  xx  xx xx xx-| 
Guitar 2 (Enters at 1:28)
e:-------------------|
B:-------------------|
G:--7--10-----10--9--|
D:--x---x--8---x--x--|
A:--5---8--x---8--7--|
E:---------6---------|

PLAY CHORUS

BRIDGE:
e:----------------------------------------------------|
B:----------------------------------------------------|
G:----------------------------------------------------|
D:--7--7--10-----7--10-----7--10-----7--10------------|
A:--5--5---8--8--5---8--8--5---8--8--5---8--8--7--11--|
E:------------6---------6---------6---------6--5---9--|
  |-x x   xx  x  x  xx  x  x  xx  x  x  xx  x  x   x--|

PLAY CHORUS
Suggest correction
Give kudos to tab author, rate the tab!
1 2 3 4 5
comments
print report bad tab
guest
You may want to rate the tab now too:
select rating
Please do not post tabs as comments. Select "correction" instead!