Oops, an error
Loading. Please wait.

Keep Loving Me Tab

version 1
version 1

Whole song

2,400 views 3 this week
no commentswrite comment
1 2 3 4 5
x 4
add to favorites
launch autoscroll
font size
0
reset
how to read this tab
guitar tuner
×
Best way to learn
"Keep Loving Me"
Autoscroll
slow
fast
+/-
esc
set tempo
stop
Author
Intro

E--------------------0--------|
B--------------------0--------|
G--------------------1--------|
D--------------------2--------|  repeat 3 times
A----10--7--5--7--2-----------|
E-----8--5--3--5--0-----------|


E----3-------7----------------|
B----3-------7----------------|
G----4-------8----------------|
D----5-------9----------------|
A----5-------9----------------|
E----3-------7----------------|


E-----------------------------|
B-----------------------------|
G-----------------------------|
D-----------------------------|   repeat 4 times
A-----------------------------|
E-----0000555588887777--------|

Verse

E-----------------------------|
B-----------------------------|
G-----------------------------|
D-----------------------------|   (it sounds better with barre chords)
A---22--77--1010----99--------|
E---00--55--8--8----77--------|

Chorus (like Intro)
Suggest correction
comments
print report bad tab
guest
You may want to rate the tab now too:
select rating
Wanna post a correction for this tab? Suggest correction