Oops, an error
Loading. Please wait.

Antarctica Tab

1,484 views 1 this week
no commentswrite comment
1 2 3 4 5
1 last vote to show rating
add to favorites
launch autoscroll
font size
0
reset
how to read this tab
guitar tuner
Autoscroll
slow
fast
+/-
esc
set tempo
stop
Help us to improve Ultimate-Guitar.com Take our survey!
×
Hey everyone, this is my first tab, I've been using this site for ages and thought it 
was time for me to give something back.

If you have any corrections or anything, email me at explosivepeanut89@gmail.com


Intro

They double up a lot of these notes, so feel free to do that whenever you want.

------------------------------------------------------|
------------------------------------------------------|
------------------------------------------------------|
------------------------------------------------------| x2
-0--0-2-3--2-0-----3-2-0--3-2----3-2----0-2-0--0---0--|
---------------3--------------1------0-----------3----|


Verse Part 1

For the first part of the verse, I think the bass keeps playing the intro, and the 
guitar plays chords.
Am      Cmaj    Gmaj    Am      Fmaj    Em      Am



Verse Part 2

 Cmajor            Gmajor           Aminor           Emajor

-12--13-15--13-12-----12-13--12-----------12-----------|
------------------15------------15-13--15-----15-13-12-|
-------------------------------------------------------|
-------------------------------------------------------|
-------------------------------------------------------|
-------------------------------------------------------|

 Cmajor            Gmajor           Aminor           Emajor

-12--13-15--13-12-----12-13--12-----------12-----------------------------|
------------------15------------15-13--15-----15-13----------10-9--13-12-|
----------------------------------------------------9--10-9--------------|
-------------------------------------------------------------------------|
-------------------------------------------------------------------------|
-------------------------------------------------------------------------|
-------------------------------------------------------------------------|


Chorus

Fmajor  Gmajor  Aminor  Cmajor  Fmajor  Aminor


Intro x2

(The violin and mandolin play two octaves up if you want to play along with them)


Verse Part 1

I'm not sure this is completely accurate, but it sounds alright.
-----5-----5-----5-----5-----5-----5-----5-----5-----5-----5-----5-----5-|
---5-----5-----5-----5-----5-----5-----5-----5-----5-----5-----5-----5---|
-5-----5-----5-----5-----5-----5-----5-----5-----5-----5-----5-----5-----|
-------------------------------------------------------------------------|
-------------------------------------------------------------------------|
-------------------------------------------------------------------------|


Verse Part 2


Chorus


Intro


Verse Part 2


Bridge

All tremolo picked (You'll probably have to play down an octave, unless you have 24 frets)

-8-------10--------12--------15--------19--------20--------22-----24-----|
-------------------------------------------------------------------------|
-------------------------------------------------------------------------|
-------------------------------------------------------------------------|
-------------------------------------------------------------------------|
-------------------------------------------------------------------------|

Hold that last note then slide down slowly

-0-----------------------------------------------------------------------|
-------------------------------------------------------------------------|
-----------------------------------2-------------------------------------|
-------------------------------------------------------------------------|
-------------------------------------------------------------------------|
-------------------------------------------------------------------------|


Verse Part 1


Verse Part 2


Chorus


Intro

End on an A minor
Suggest correction
Give kudos to tab author, rate the tab!
1 2 3 4 5
comments
print report bad tab
guest
You may want to rate the tab now too:
select rating
Wanna post a correction for this tab? Suggest correction