Oops, an error
Loading. Please wait.

The Skrigjaargen Polka Bass Tab

1,381 views 6 this week
1 commentread comment
1 2 3 4 5
3 more votes to show rating
add to favorites
launch autoscroll
font size
0
reset
guitar tuner
Autoscroll
slow
fast
+/-
esc
set tempo
stop
Help us to improve Ultimate-Guitar.com Take our survey!
×
Difficulty
novice
     Q    Q    Q    Q       Q    Q    Q    Q       Q    Q    Q    Q     
G||----------------------|----------------------|----------------------|
D||----------------------|----------------------|----------------------|
A||----------------------|----------------------|----------------------|
E||--5----0----0----7----|--0----7----5----0----|--5----0----0----7----|


  Q    Q    H      x4    Q    Q    Q    Q       Q    Q    Q    Q     
--------------------||----------------------|----------------------|
-------------------*||*---------------------|----------------------|
-------------------*||*-----------5---------|----------------------|
--0----7----5-------||--5----0---------5----|--0----7----5----0----|


  Q    Q    Q    Q       Q    Q    H       x2  Q    Q    Q    Q     
----------------------|---------------------|----------------------|
----------------------|--------------------*|----------------------|
------------5---------|--------------------*|----------------------|
--5----0---------5----|--0----7----5--------|--5----0----5----0----|


  Q    Q    Q    Q       Q    Q    Q    Q       Q    Q    E  E  E  E   
----------------------|----------------------|------------------------|
----------------------|----------------------|------------------------|
----------------------|----------------------|------------------3--3--|
--5----0----0----7----|--0----7----0----7----|--0----7----1--1--------|


  Q    Q    Q    Q       Q    Q    Q    Q       Q    Q    Q    Q     
----------------------|----------------------|----------------------|
----------------------|----------------------|----------------------|
----------------------|----------------------|--5-------------------|
--5----0----5----0----|--5----0----0----7----|-------5----5----0----|


  Q    Q    H          
---------------------||
---------------------||
---------------------||
--0----7----5--------||


This Pattern goes through whole song. It only becomes faster and faster.



Duration Legend
---------------
W - whole
H - half
Q - quarter
E - 8th
Suggest correction
Give kudos to tab author, rate the tab!
1 2 3 4 5
comments
print report bad tab
1 comment total.
0 reply
crop 10 Apr 08, 2011 04:42 PM

Third bar from the end should go like this:


Q Q Q Q
|----------------------|
|----------------------|
|------------5---------|
|--5----0---------5----|

guest
You may want to rate the tab now too:
select rating
Wanna post a correction for this tab? Suggest correction