Oops, an error
Loading. Please wait.

Save The Last Dance For Me bass

version 2
version 2

Whole song

  • ver 2 new
    Easy to sing along with. All words included.
13 views 13 this week
no commentswrite comment
1 2 3 4 5
2 more votes to show rating
add to favorites
×
Save as Personal and add changes to this tab that will be seen only by you. Learn more ›
×
You can save this tab as Personal to edit and correct it or add notes. All changes will be seen only by you. Learn more »
launch autoscroll
font size
0
reset
guitar tuner
edit
Autoscroll
slow
fast
+/-
esc
set tempo
stop
About this tab version
Easy to sing along with. All words included. Was this info helpful? Yes No
Song:  Save The Last Dance For Me
Artist: The Drifters    Album Save the Last Dance for Me 1960  Writers:    Doc Pomus and Mort Schuman

Tabbed by benhoff99  (benhoffman99@hotmail.com)


[Intro]

     E
G|---------11-9---|---------11-9---|
D|------9---------|------9---------|
A|7---------------|7---------------|
E|----------------|----------------|
  +   +   +   +    +   +   +   +   
                            you can

[Verse 1]

   E                                                  B
G|--------11------|--------11------|--------11--9---|--------11------|
D|------9-----9---|------9-----9---|------9---------|------------9---|
A|7---------------|7---------------|7---------------|------9---------|
E|----------------|----------------|----------------|7---------------|
  +   +   +   +    +   +   +   +    +   +   +   +    +   +   +   +
 dance    every   dance with the  gives you the eye         hold you
                              guy who           Let him

   B                                                  
G|--------11------|--------11------|--------11------|--------11------|
D|------------9---|------------9---|------------9---|------------9---|
A|------9---------|------9---------|------9---------|------9---------|
E|7---------------|7---------------|7---------------|7---------------|
  +   +   +   +    +   +   +   +    +   +   +   +    +   +   +   +
tight      You can smile      every smile for the  held your hand Neath the
                                               man who
                                    
      E                             
G|--------11------|--------11------| 
D|------9-----9---|------9-----9---| 
A|7---------------|7---------------| 
E|----------------|----------------| 
  +   +   +   +    +   +   +   +     
pale moonlight        But don't  for-

[Chorus]

      A                             E
G|--------11------|--------11------|--------11------|--------11------|
D|------14----14--|------14----14--|------9-----9---|------9-----9---|
A|12--------------|12--------------|7---------------|7---------------|
E|----------------|----------------|----------------|----------------|
  +   +   +   +    +   +   +   +    +   +   +   +    +   +   +   +
-get who's taking home and in whose  gonna be                      So
                you        arms you're
   B                                E 
G|--------11------|--------11------|--------11------|--------11------|
D|------------9---|------------9---|------9-----9---|------9-----9---|
A|------9---------|------9---------|7---------------|7---------------|
E|7---------------|7---------------|----------------|----------------|
  +   +   +   +    +   +   +   +    +   +   +   +    +   +   +   +
 darling, save the last dance for   me                          Oh I 

[Verse 2]

   E                                                  B
G|--------11------|--------11------|--------11--9---|--------11------|
D|------9-----9---|------9-----9---|------9---------|------------9---|
A|7---------------|7---------------|7---------------|------9---------|
E|----------------|----------------|----------------|7---------------|
  +   +   +   +    +   +   +   +    +   +   +   +    +   +   +   +
 know     that the music's fine like sparkling wine   have your fun
                                              go and  

   B                                                  
G|--------11------|--------11------|--------11------|--------11------|
D|------------9---|------------9---|------------9---|------------9---|
A|------9---------|------9---------|------9---------|------9---------|
E|7---------------|7---------------|7---------------|7---------------|
  +   +   +   +    +   +   +   +    +   +   +   +    +   +   +   +
         Laugh and sing    but while we're apart dont give your heart to
                                    
      E                             
G|--------11------|--------11------| 
D|------9-----9---|------9-----9---| 
A|7---------------|7---------------| 
E|----------------|----------------| 
  +   +   +   +    +   +   +   +     
anyone                     But dont for-

[Chorus]

      A                             E
G|--------11------|--------11------|--------11------|--------11------|
D|------14----14--|------14----14--|------9-----9---|------9-----9---|
A|12--------------|12--------------|7---------------|7---------------|
E|----------------|----------------|----------------|----------------|
  +   +   +   +    +   +   +   +    +   +   +   +    +   +   +   +
-get who's taking home and in whose  gonna be                      So
                you        arms you're
   B                                E 
G|--------11------|--------11------|--------11------|--------11------|
D|------------9---|------------9---|------9-----9---|------9-----9---|
A|------9---------|------9---------|7---------------|7---------------|
E|7---------------|7---------------|----------------|----------------|
  +   +   +   +    +   +   +   +    +   +   +   +    +   +   +   +
  darling, save the last dance for  me                Baby don't you know I

[Middle 8]
 
   B                                E 
G|--------11------|--------11------|--------11------|--------11------|
D|------------9---|------------9---|------9-----9---|------9-----9---|
A|------9---------|------9---------|7---------------|7---------------|
E|7---------------|7---------------|----------------|----------------|
  +   +   +   +    +   +   +   +    +   +   +   +    +   +   +   +
 love you so     Can't you feel it   touch,          I will never ever 
                               when we  

   B                                E 
G|--------11------|--------11------|--------11------|--------11------|
D|------------9---|------------9---|------9-----9---|------9-----9---|
A|------9---------|------9---------|7---------------|7---------------|
E|7---------------|7---------------|----------------|----------------|
  +   +   +   +    +   +   +   +    +   +   +   +    +   +   +   +
  let you go.      I love you oh so  much                        You can

[Verse 3]

   E                                                  B
G|--------11------|--------11------|--------11--9---|--------11------|
D|------9-----9---|------9-----9---|------9---------|------------9---|
A|7---------------|7---------------|7---------------|------9---------|
E|----------------|----------------|----------------|7---------------|
  +   +   +   +    +   +   +   +    +   +   +   +    +   +   +   +
dance, go and     carry on till the night is gone    time to go
                                               and its 

   B                                                  
G|--------11------|--------11------|--------11------|--------11------|
D|------------9---|------------9---|------------9---|------------9---|
A|------9---------|------9---------|------9---------|------9---------|
E|7---------------|7---------------|7---------------|7---------------|
  +   +   +   +    +   +   +   +    +   +   +   +    +   +   +   +
            If he asks if you're    all alone can he take you home you must
                                    
      E                             
G|--------11------|--------11------| 
D|------9-----9---|------9-----9---| 
A|7---------------|7---------------| 
E|----------------|----------------| 
  +   +   +   +    +   +   +   +     
tell him no                    Cause dont for-

[Chorus]

      A                             E
G|--------11------|--------11------|--------11------|--------11------|
D|------14----14--|------14----14--|------9-----9---|------9-----9---|
A|12--------------|12--------------|7---------------|7---------------|
E|----------------|----------------|----------------|----------------|
  +   +   +   +    +   +   +   +    +   +   +   +    +   +   +   +
-get who's taking home and in whose  gonna be                      So
                you        arms you're
   B                                E 
G|--------11------|--------11------|--------11------|--------11------|
D|------------9---|------------9---|------9-----9---|------9-----9---|
A|------9---------|------9---------|7---------------|7---------------|
E|7---------------|7---------------|----------------|----------------|
  +   +   +   +    +   +   +   +    +   +   +   +    +   +   +   +
  darling, save the last dance for  me   
          
[Instrumental]  

   B                                E 
G|--------11------|--------11------|--------11------|--------11------|
D|------------9---|------------9---|------9-----9---|------9-----9---|
A|------9---------|------9---------|7---------------|7---------------|
E|7---------------|7---------------|----------------|----------------|
  +   +   +   +    +   +   +   +    +   +   +   +    +   +   +   +

   B                                E 
G|--------11------|--------11------|--------11------|--------11------|
D|------------9---|------------9---|------9-----9---|------9-----9---|
A|------9---------|------9---------|7---------------|7---------------|
E|7---------------|7---------------|----------------|----------------|
  +   +   +   +    +   +   +   +    +   +   +   +    +   +   +   +
                                                                But don't

[Chorus]

      A                             E
G|--------11------|--------11------|--------11------|--------11------|
D|------14----14--|------14----14--|------9-----9---|------9-----9---|
A|12--------------|12--------------|7---------------|7---------------|
E|----------------|----------------|----------------|----------------|
  +   +   +   +    +   +   +   +    +   +   +   +    +   +   +   +
-get who's taking home and in whose  gonna be                      So
                you        arms you're
   B                                E 
G|--------11------|--------11------|--------11------|--------11------|
D|------------9---|------------9---|------9-----9---|------9-----9---|
A|------9---------|------9---------|7---------------|7---------------|
E|7---------------|7---------------|----------------|----------------|
  +   +   +   +    +   +   +   +    +   +   +   +    +   +   +   +
  darling, save the last dance for  me                  hmmm-  mmm

[Outro]

   B                                E 
G|--------11------|--------11------|--------11------|--------11------|
D|------------9---|------------9---|------9-----9---|------9-----9---|
A|------9---------|------9---------|7---------------|7---------------|
E|7---------------|7---------------|----------------|----------------|
  +   +   +   +    +   +   +   +    +   +   +   +    +   +   +   +
  save the last dance for  me                             hmmm-  mmm

   B                                E 
G|--------11------|--------11------|--------11------|--------11------|
D|------------9---|------------9---|------9-----9---|------9-----9---|
A|------9---------|------9---------|7---------------|7---------------|
E|7---------------|7---------------|----------------|----------------|
  +   +   +   +    +   +   +   +    +   +   +   +    +   +   +   +
  save the last dance for  me                        hmmm-  mmm   Fade out
Suggest correction
Creating personal tab
Creating personal tab
You can edit any tab online and save it as your Personal.

You can edit, replace or remove any tab part or add personal notes – all changes will be seen only by you.

Personal tabs can be accessed anytime from any device, even offline.
Learn more »
Give kudos to tab author, rate the tab!
1 2 3 4 5
comments
print report bad tab
guest
You may want to rate the tab now too:
select rating
Wanna post a correction for this tab? Suggest correction