Oops, an error
Loading. Please wait.

Some Kind Of Wonderful bass

76 views 1 this week
no commentswrite comment
1 2 3 4 5
3 more votes to show rating
add to favorites
×
Save as Personal and add changes to this tab that will be seen only by you. Learn more ›
×
You can save this tab as Personal to edit and correct it or add notes. All changes will be seen only by you. Learn more »
launch autoscroll
font size
0
reset
guitar tuner
edit
Autoscroll
slow
fast
+/-
esc
set tempo
stop
Author
Some Kind Of Wonderful
A Goffin/King song released by Ben E King & The Drifters in 1961. Never
Charted in UK.  Number 32 in USA. Tab by Bass50611.  As per original.
‘.’ Are pause dots.   Comments bass254@btinternet.com 

Intro:
  ‘.’        ‘.’        ‘.’
G|-------------------------|
D|-------------------------|
A|-8----------5----------8-|
E|-------------------------|

Verse 1:
G|----------------------------------------------3--3-3----3--3-3---|
D|-----------------------------------------------------3---------3-|
A|-8--8-8-----8--8-8-----5--5-5-----5--5-5-------------------------|
E|--------8----------8----------5----------5-----------------------|

G|-----------------------------------------------------------------|
D|-----------------------------------------------------------------|
A|-3--3-3-----3--3-3-----8--8-8-----8--8-8-----5--5-5-----5--5-5---|
E|--------3----------3----------8----------8----------5----------5-|

G|-3--3-3----3--3-3------------------------|
D|--------3---------3----------------------|
A|---------------------3--3-3-----3--3-3---|
E|----------------------------3----------3-|

Bridge:
G|---------------------------------------------------------------------|
D|----------------------10--10-10-----10--10-10------------------------|
A|-8--8-8----8--8-8---------------10------------10---8--8-8---8--8-8---|
E|--------8---------8---------------------------------------8--------8-|

                 (Break)
G|-----------------|
D|-----------------|
A|-----------------|
E|-6--6-6----6-7-8-|

Verse 2:
G|---------------------------------------------3--3-3----3--3-3---|
D|----------------------------------------------------3---------3-|
A|-8--8-8-----8--8-8-----5--5-5-----5--5-5------------------------|
E|--------8----------8----------5----------5----------------------|

G|---------------------|
D|---------------------|
A|-3--3-3-----3--3-3---|
E|--------3----------3-|

Instrumental Interlude:
G|-----------------------------------------------------------------|
D|---------------------------------------------8--8-8-----8--8-8---|
A|-8--8-8-----8--8-8-----5--5-5-----5--5-5------------8----------8-|
E|--------8----------8----------5----------5-----------------------|

G|----------------------------|
D|-10--10-10-----10--10-10----|
A|-----------10------------10-|
E|----------------------------|

Bridge:
G|---------------------------------------------------------------------|
D|----------------------10--10-10-----10--10-10------------------------|
A|-8--8-8----8--8-8---------------10------------10---8--8-8---8--8-8---|
E|--------8---------8---------------------------------------8--------8-|

                 (Break)
G|-----------------|
D|-----------------|
A|-----------------|
E|-6--6-6----6-7-8-|

Verse 3:
G|---------------------------------------------3--3-3----3--3-3---|
D|----------------------------------------------------3---------3-|
A|-8--8-8-----8--8-8-----5--5-5-----5--5-5------------------------|
E|--------8----------8----------5----------5----------------------|

G|---------------------|
D|---------------------|
A|-3--3-3-----3--3-3---|
E|--------3----------3-|

Outro: (Repeat To Fade/End)
G|-----------------------------------------------------------------|
D|---------------------------------------------8--8-8-----8--8-8---|
A|-8--8-8-----8--8-8-----5--5-5-----5--5-5------------8----------8-|
E|--------8----------8----------5----------5-----------------------|

G|----------------------------|
D|-10--10-10-----10--10-10----|
A|-----------10------------10-|
E|----------------------------|



Wonderful wonderful

All you have to do is touch my hand
To show me you understand
And something happens to me
That's some kind of wonderful
At any time my little world seems blue
I just have to look at you
And everything seems to be
Some kind of wonderful

I know I can't express
This feeling of tenderness
There's so much I wanna say
But the right words just don't come my way
I just know when I'm in your embrace
This world is a happy place
And something happens to me
There's some kind of wonderful

I know I can't express
This feeling of tenderness
There's so much I wanna say
But the right words just don't come my way
I just know when I'm in your embrace
This world is a happy place
And something happens to me
There's some kind of wonderful

Some kind of sweet lips
Some kind of warm eyes
Some kind of soft sigh
There's only some kind of wonderful

Oh yeah wonderful
Suggest correction
Creating personal tab
Creating personal tab
You can edit any tab online and save it as your Personal.

You can edit, replace or remove any tab part or add personal notes – all changes will be seen only by you.

Personal tabs can be accessed anytime from any device, even offline.
Learn more »
Give kudos to tab author, rate the tab!
1 2 3 4 5
comments
print report bad tab
guest
You may want to rate the tab now too:
select rating
Wanna post a correction for this tab? Suggest correction