Oops, an error
Loading. Please wait.

The Minotaur bass

1,179 views 1 this week
no commentswrite comment
1 2 3 4 5
3 more votes to show rating
add to favorites
×
Save as Personal and add changes to this tab that will be seen only by you. Learn more ›
×
You can save this tab as Personal to edit and correct it or add notes. All changes will be seen only by you. Learn more »
launch autoscroll
font size
0
reset
guitar tuner
edit
Autoscroll
slow
fast
+/-
esc
set tempo
stop
Author
Difficulty
Song: The Minotaur
Artist: The Drones
Album: Havilah
Instrument: Bass Guitar
------------------------

Standard Tuning: EADG

| /  slide up
| \  slide down
| h  hammer-on
| p  pull-off
| ~  vibrato
| +  harmonic
| x  Mute note

Bass Starts at around 0:14

G|-------------------------------------------------------------------|
D|-------------------------------------------------------------------|
A|--/2-2----2-2----2-2----------------2-2----2-2----2-2--------------|
E|------3--3---3--3---3--3-0-0-3-2-------3--3---3--3---3--3-0-0-3-2--|

---------------------------------------------------------------------|
---------------------------------------------------------------------|
-----2-2----2-2----2-2----------------2-2----2-2----2-2--------------|
--------3--3---3--3---3--3-0-0-3-2-------3--3---3--3---3--3-0-0-3-2--|


Bridge (around 0:50) - it's hard to hear this part, so listen carefully

G|-------------------------------------------------------------------|
D|-------------------------------------------------------------------|
A|----2-2-4-4--/5--/7--/9-------2-2-4-4--/5--/4-4--------------------|
E|--2-------------------------2-------------------2------------------|


Verse 2

G|-------------------------------------------------------------------|
D|-------------------------------------------------------------------|
A|--/2-2----2-2----2-2----------------2-2----2-2----2-2--------------|
E|------3--3---3--3---3--3-0-0-3-2-------3--3---3--3---3--3-0-0-3-2--|

---------------------------------------------------------------------|
---------------------------------------------------------------------|
-----2-2----2-2----2-2----------------2-2----2-2----2-2--------------|
--------3--3---3--3---3--3-0-0-3-2-------3--3---3--3---3--3-0-0-3-2--|


Chorus (around 1:16)

G|-------------------------------------------------------------------|
D|-------------------------------------------------------------------|
A|------------------------------------------5-5-5-5-5-5--------------|
E|--2--/5-5-5--5-5-5---0-0-2-3--0-2-0-2-3----------------5-5-5-5-5-5-|


-----------------------------------|
-----------------------------------|
-----------------------------------|
--0-2-3--0-2-0-2-3-----------------|


Verse 3 (around 1:40) - there is a small section right after the chorus where there is 
bass

G|-------------------------------------------------------------------|
D|-------------------------------------------------------------------|
A|-------------2-2----2-2----2-2-------------------------------------|
E|--0-0-3-2-------3--3---3--3---3--3-0-0-3-2-------------------------|


Bridge 2 (around 1:51) - again hard to hear

G|-------------------------------------------------------------------|
D|-------------------------------------------------------------------|
A|----2-2-4-4--/5--/7--/9-------2-2-4-4--/5--/4-4--------------------|
E|--2-------------------------2-------------------2------------------|


Verse 4 (around 2:01)

G|-------------------------------------------------------------------|
D|-------------------------------------------------------------------|
A|--/2-2----2-2----2-2----------------2-2----2-2----2-2--------------|
E|------3--3---3--3---3--3-0-0-3-2-------3--3---3--3---3--3-0-0-3-2--|

Chorus 2 (around 2:21)

G|-------------------------------------------------------------------|
D|-------------------------------------------------------------------|
A|------------------------------------------5-5-5-5-5-5--------------|
E|--2--/5-5-5--5-5-5---0-0-2-3--0-2-0-2-3----------------5-5-5-5-5-5-|

---------------------------------------------------------------------|
---------------------------------------------------------------------|
-----------------------5-5-5-5-5-5-----------------------------------|
--0-0-2-3--0-2-0-2-3----------------5-5-5-5-5-5---0-0-2-3--0-2-0-2-3-|

---------------------------------------------------------------------|
---------------------------------------------------------------------|
---------------------------------------------------------------------|
--5-5--5-5--5-5--5-5----0-0-2-3--0-2-0-2-3----5-5--5-5--5-5--5-5-----|

---------------------------------------------------------------------|
---------------------------------------------------------------------|
---------------------------------------------------------------------|
--0-0-2-3--0-2-0-2-3----5-5--5-5--5-5--5-5--5-5--5-5--5-5--5-5--5-5--|

---------------------------------------------------------------------|
---------------------------------------------------------------------|
---------------------------------------------------------------------|
--5-5--5-5--5-5--5-5--5-5--5-5--5-5--5-5--5-5--5-5--5-5--5-5--5-5----|


That's the song, very fun song to play, especially with some overdrive.

email: clocked@live.com for questions.

            
            
Suggest correction
Creating personal tab
Creating personal tab
You can edit any tab online and save it as your Personal.

You can edit, replace or remove any tab part or add personal notes – all changes will be seen only by you.

Personal tabs can be accessed anytime from any device, even offline.
Learn more »
Give kudos to tab author, rate the tab!
1 2 3 4 5
comments
print report bad tab
guest
You may want to rate the tab now too:
select rating
Wanna post a correction for this tab? Suggest correction