Oops, an error
Loading. Please wait.
We have an official Best Friend tab made by UG professional guitarists. Check out the tab »
×
19,041 views 15 this week
2 commentsread comments
1 2 3 4 5
x 9
add to favorites
×
Save as Personal and add changes to this tab that will be seen only by you. Learn more ›
×
You can save this tab as Personal to edit and correct it or add notes. All changes will be seen only by you. Learn more »
launch autoscroll
font size
0
reset
how to read this tab
guitar tuner
edit
Autoscroll
slow
fast
+/-
esc
set tempo
stop
Author
Difficulty
The Drums - Best Friend
Tabbed By Jennifer James


Guitar 1 MAIN RIFF (Throughout whole song)

e|-----------------------------------------------------------------| 
B|-----------------------------------------------------------------| 
G|----------------------------------------------------------------o| 
D|-----------------------------------------------------------------|
A|--3-3-3-3-------------------------------------------------------o| 
E|----------1-1-1-1------------------------------------------------|


Guitar 2 VERSE RIFF

e|-----------------------------------------------------------------| 
B|-----------------------------------------------------------------| 
G|---0-0-----------2-2--4-4-2-2-----------------------------------o| 
D|--2-2--3-3-2----0-0----------------------------------------------|
A|----------------------------------------------------------------o| 
E|-----------------------------------------------------------------|



Guitar 2 CHORUS RIFF
e|-----------------------------------------------------------------| 
B|-----------------------------------------------------------------| 
G|--12-12-9-9-7-7-9-9-12-12-7-7-5-5-------------------------------o| 
D|-----------------------------------------------------------------|
A|----------------------------------------------------------------o| 
E|-----------------------------------------------------------------|

Still need to work on the solo

Feel free to add comments/corrections :]

            
            
Suggest correction
Creating personal tab
Creating personal tab
You can edit any tab online and save it as your Personal.

You can edit, replace or remove any tab part or add personal notes – all changes will be seen only by you.

Personal tabs can be accessed anytime from any device, even offline.
Learn more »
comments
print report bad tab
2 comments total.
+1 reply
yelixir 10 Jun 17, 2011 09:09 PM

Thank you for posting this! It's great I only have one correction for the chorus riff. Well at least I think it's a correction.

G --12-12-12-9-9--7-7-7-9-9--12-12-12-9-9--7-7-7--5-5-/12 repeat

it's just the amount of times you need to strum it and that's basically it.

+1 reply
Asian.Jesus.Chr 31 Mar 29, 2013 08:52 PM

Chorus:
G --12-12-9--9-9-9-7-7-9--9-9-9-12-12-9--9-9-9-7-7-5--5-5-5
Verse:
e|-----------------------------------------------------------------|
B|-----------------------------------------------------------------|
G|---0-0-----------0-0--4-4-2-2-----------------------------------o|
D|--2-2--3-3-2----2-2----------------------------------------------|
A|----------------------------------------------------------------o|
E|-----------------------------------------------------------------|
Solo:
e|--------15-15---------------------------------------------------o|
B|--17-17-------17-17-15--15-15-15--------------------------------o|

guest
You may want to rate the tab now too:
select rating
Wanna post a correction for this tab? Suggest correction